Oops, an error
Loading. Please wait.

Scared Tab

2,634 views 3 this week
3 commentsread comments
1 2 3 4 5
excellent!
x 2
Autoscroll
+/-
esc
set tempo
stop
Contributor
Difficulty
Tabbers playing skills
intermediate
advanced ++
WARNING: You are trying to view
                                    content from Ultimate-Guitar.com
                                    in an unauthorized application,
                                    which is prohibited.

                                    Please use an official Ultimate
                                    Guitar Tabs application for iPhone,
                                    iPad or Android to access legitimate
                                    chords, guitar, bass, and drum tabs
                                    from Ultimate-Guitar.com database.

                                    Type "ultimate guitar tabs" in Apple
                                    App Store's or Android Market's
                                    search to find the application.
-------------------------------------------------------------------------------
                             SCARED - Dangerous Toys
-------------------------------------------------------------------------------
Tabbed by: Isaias Garcia (TexasFury)

Tuning: Standard

Album: Dangerous Toys



Rhythm Guitar

                                   PM PM PM                           PM PM PM PM             
     W                   E  E   E  S  S  E   E  E   E      E   E   E  S  S  S  S   E  E   E   
E||-------------------|--------------------------------|-------------------------------------|
B||-------------------|--------10-----------10------8--|---8---8---8---------------8------9--|
G||-------------------|--------10-----------10------9--|---9---9---9---------------9------8--|
D||-------------------|--------10-----------10-----10--|--10--10--10--------------10-----10--|
A||-------------------|--8--8------8--8--8-------------|--------------8--8--8--8-------------|
E||-------------------|--------------------------------|-------------------------------------|


              PM PM PM                                                      PM PM PM             
   E   E   E  S  S  E   E  E  E     E  E  E  E  E  E  E   E      E   E   E  S  S  E   E  E   E   
---------------------------------|---------------------------|----------------------------------|
---L---9---9------------9-----8--|--L--8-----6--L--6---------|------10--10-----------10------8--|
---L---8---8------------8-----8--|--L--8-----7--L--7-----10--|---L--10--10-----------10------9--|
---L--10--10-----------10-----8--|--L--8-----8--L--8-----10--|---L--10--10-----------10-----10--|
--------------8--8--8---------6--|--L--6-----6--L--6------8--|---L---8------8--8--8-------------|
---------------------------------|---------------------------|----------------------------------|


              PM PM PM PM                           PM PM PM                                        
   E   E   E  S  S  S  S   E  E   E      E   E   E  S  S  E   E  E  E     E  E  E  E  E  E  E   E   
-------------------------------------|---------------------------------|---------------------------|
---L---8---8---------------8------9--|---L---9---9------------9-----8--|--L--8-----6--L--6---------|
---L---9---9---------------9------8--|---L---8---8------------8-----8--|--L--8-----7--L--7---------|
---L--10--10--------------10-----10--|---L--10--10-----------10-----8--|--L--8-----8--L--8-----10--|
--------------8--8--8--8-------------|--------------8--8--8---------6--|--L--6-----6--L--6------8--|
-------------------------------------|---------------------------------|---------------------------|


   H.            E   E      H.            E   E      H.            E  E     E  E  E  E  Q.      E   
------------------------|------------------------|-----------------------|-------------------------|
------------------------|---------------------9--|---L-------------L-----|-------------------------|
---------------------9--|---L-------------L---8--|---L-------------L--8--|--L--8-----7--L----------|
---L-------------L--10--|---L-------------L--10--|---L-------------L--8--|--L--8-----8--L------10--|
---L-------------L---8--|---L-------------L---8--|---L-------------L--6--|--L--6-----6--L-------8--|
------------------------|------------------------|-----------------------|-------------------------|


   H.            E   E      H.            E   E      H.            E  E     E  E  E  E  Q.     E   
------------------------|------------------------|-----------------------|------------------------|
------------------------|---------------------9--|---L-------------L-----|------------------------|
---------------------9--|---L-------------L---8--|---L-------------L--8--|--L--8-----7--L------5--|
---L-------------L--10--|---L-------------L--10--|---L-------------L--8--|--L--8-----8--L------5--|
---L-------------L---8--|---L-------------L---8--|---L-------------L--6--|--L--6-----6--L------3--|
------------------------|------------------------|-----------------------|------------------------|


  E   E  Q    E  E  E  E     E   E  Q    E  E  E  E     E   E  Q    Q    E  E   
--------------------------|--------------------------|-------------------------|
--------------------------|--------------------------|-------------------------|
--Ls--7--7----7--7--L--5--|--Ls--7--7----7--7--L-----|-------------------------|
--Ls--7--7----7--7--L--5--|--Ls--7--7----7--7--L--3--|--Ls--5--5----5----L--3--|
--Ls--5--5----5--5--L--3--|--Ls--5--5----5--5--L--3--|--Ls--5--5----5----L--3--|
--------------------------|-----------------------1--|--Ls--3--3----3----L--1--|


  E  E  E  E  E  E  E  E     E   E  Q    E  E  E  E     E   E  Q    E  E  E  E   
--------------------------|--------------------------|--------------------------|
--------------------------|--------------------------|--------------------------|
-----------------------5--|--Ls--7--7----7--7--L--5--|--Ls--7--7----7--7--L-----|
--L--5--7--5--L--5-----5--|--Ls--7--7----7--7--L--5--|--Ls--7--7----7--7--L--3--|
--L--5--7--5--L--5-----3--|--Ls--5--5----5--5--L--3--|--Ls--5--5----5--5--L--3--|
--L--3--5--3--L--3--------|--------------------------|-----------------------1--|


                                                                 PM PM PM             
  E   E  Q    Q    E  E     E  E  E  E  Q     Q         Q     E  S  S  E   E  E   E   
-------------------------|--------------------------|--------------------------------|
-------------------------|--------------------------|---------------------10------8--|
-------------------------|--------------------------|--10----10-----------10------9--|
--Ls--5--5----5----L--3--|--L--5--7--5--L-----------|--10----10-----------10-----10--|
--Ls--5--5----5----L--3--|--L--5--7--5--L-----------|---8-----8--8--8--8-------------|
--Ls--3--3----3----L--1--|--L--3--5--3--L----15\----|--------------------------------|


              PM PM PM PM                           PM PM PM                                        
   E   E   E  S  S  S  S   E  E   E      E   E   E  S  S  E   E  E  E     E  E  E  E  E  E  E   E   
-------------------------------------|---------------------------------|---------------------------|
---8---8---8---------------8------9--|---L---9---9------------9-----8--|--L--8-----6--L--6---------|
---9---9---9---------------9------8--|---L---8---8------------8-----8--|--L--8-----7--L--7---------|
--10--10--10--------------10-----10--|---L--10--10-----------10-----8--|--L--8-----8--L--8-----10--|
--------------8--8--8--8-------------|--------------8--8--8---------6--|--L--6-----6--L--6------8--|
-------------------------------------|---------------------------------|---------------------------|


   H.            E   E      H.            E   E      H.            E  E     E  E  E  E  Q.      E   
------------------------|------------------------|-----------------------|-------------------------|
------------------------|---------------------9--|---L-------------L-----|-------------------------|
---------------------9--|---L-------------L---8--|---L-------------L--8--|--L--8-----7--L----------|
---L-------------L--10--|---L-------------L--10--|---L-------------L--8--|--L--8-----8--L------10--|
---L-------------L---8--|---L-------------L---8--|---L-------------L--6--|--L--6-----6--L-------8--|
------------------------|------------------------|-----------------------|-------------------------|


   H.            E   E      H.            E   E      H.            E  E     E  E  E  E  Q.     E   
------------------------|------------------------|-----------------------|------------------------|
------------------------|---------------------9--|---L-------------L-----|------------------------|
---------------------9--|---L-------------L---8--|---L-------------L--8--|--L--8-----7--L------5--|
---L-------------L--10--|---L-------------L--10--|---L-------------L--8--|--L--8-----8--L------5--|
---L-------------L---8--|---L-------------L---8--|---L-------------L--6--|--L--6-----6--L------3--|
------------------------|------------------------|-----------------------|------------------------|


  E   E  Q    E  E  E   E     E   E  Q    E  E  E  E     E   E  Q    Q    E  E   
---------------------------|--------------------------|-------------------------|
---------------------------|--------------------------|-------------------------|
--Ls--7--7----7--7--LS--5--|--Ls--7--7----7--7--L-----|-------------------------|
--Ls--7--7----7--7--LS--5--|--Ls--7--7----7--7--L--3--|--Ls--5--5----5----L--3--|
--Ls--5--5----5--5--LS--3--|--Ls--5--5----5--5--L--3--|--Ls--5--5----5----L--3--|
---------------------------|-----------------------1--|--Ls--3--3----3----L--1--|


  E  E  E  E  Q    E  E     E   E  Q    E  E  E  E     E   E  Q    E  E  E  E   
-------------------------|--------------------------|--------------------------|
-------------------------|--------------------------|--------------------------|
----------------------5--|--Ls--7--7----7--7--L--5--|--Ls--7--7----7--7--L-----|
--L--5--7--5--L-------5--|--Ls--7--7----7--7--L--5--|--Ls--7--7----7--7--L--3--|
--L--5--7--5--L-------3--|--Ls--5--5----5--5--L--3--|--Ls--5--5----5--5--L--3--|
--L--3--5--3--L----------|--------------------------|-----------------------1--|


  E   E  Q    Q    E  E     E  E  E  E  Q    Q       W                   W                 
-------------------------|------------------------|-------------------|-------------------|
-------------------------|------------------------|-------------------|-------------------|
-------------------------|------------------------|-------------------|-------------------|
--Ls--5--5----5----L--3--|--L--5--7--5--L---------|-------------------|-------------------|
--Ls--5--5----5----L--3--|--L--5--7--5--L---------|-------------------|-------------------|
--Ls--3--3----3----L--1--|--L--3--5--3--L---------|-------------------|-------------------|


                                                                                  <                 
  W                   W                   W                   W                   W                 
-------------------|-------------------|-------------------|-------------------|-------------------|
-------------------|-------------------|-------------------|-------------------|-------------------|
-------------------|-------------------|-------------------|-------------------|-------------------|
-------------------|-------------------|-------------------|-------------------|--2----------------|
-------------------|-------------------|-------------------|-------------------|--0----------------|
-------------------|-------------------|-------------------|-------------------|-------------------|


                                 PM PM PM                      PM PM PM PM           
  H.            Q        Q    E  S  S  E  E  E  E     E  E  E  S  S  S  S  E  E  E   
----------------------|----------------------------|--------------------------------|
----------------------|-------------------9-----7--|--7--7--7--------------7-----8--|
----------------------|--9----9-----------9-----8--|--8--8--8--------------8-----7--|
--L-------------------|--9----9-----------9-----9--|--9--9--9--------------9-----9--|
--L-------------------|--7----7--7--7--7-----------|-----------7--7--7--7-----------|
---------------12\----|----------------------------|--------------------------------|


           PM PM PM                                                 PM PM PM           
  E  E  E  S  S  E  E  E  E     E  E  E  E  E  E  E  E     E  E  E  S  S  E  E  E  E   
-----------------------------|--------------------------|-----------------------------|
--L--8--8-----------8-----7--|--L--7-----5--L--5--------|--------------------9-----7--|
--L--7--7-----------7-----7--|--L--7-----6--L--6-----9--|--L--9--9-----------9-----8--|
--L--9--9-----------9-----7--|--L--7-----7--L--7-----9--|--L--9--9-----------9-----9--|
-----------7--7--7--------5--|--L--5-----5--L--5-----7--|--L--7--7--7--7--7-----------|
-----------------------------|--------------------------|-----------------------------|


           PM PM PM PM                      PM PM PM                                      
  E  E  E  S  S  S  S  E  E  E     E  E  E  S  S  E  E  E  E     E  E  E  E  E  E  E  E   
--------------------------------|-----------------------------|--------------------------|
--7--7--7--------------7-----8--|--L--8--8-----------8-----7--|--L--7-----5--L--5--------|
--8--8--8--------------8-----7--|--L--7--7-----------7-----7--|--L--7-----6--L--6--------|
--9--9--9--------------9-----9--|--L--9--9-----------9-----7--|--L--7-----7--L--7-----2--|
-----------7--7--7--7-----------|-----------7--7--7--------5--|--L--5-----5--L--5-----0--|
--------------------------------|-----------------------------|--------------------------|


     PM             PM          PM             PM          PM             PM     
  E  E  E  E  E  E  E  E     E  E  E  E  E  E  E  E     E  E  E  E  E  E  E  E   
--------------------------|--------------------------|--------------------------|
--------------------------|--------------------------|--------------------------|
--------------------------|--------------------------|--------------------------|
--2-----2--2--2--2-----4--|--L-----4--4--4--4-----5--|--L-----5--5--5--5-----7--|
--0--0--0--0--0--0--0--2--|--L--2--2--2--2--2--2--3--|--L--3--3--3--3--3--3--5--|
--------------------------|--------------------------|--------------------------|


     PM                PM    PM PM                                             
  E  E  E  E  E  E  E  E     E  E  E  E  Q    E  E     E  E  Q    E  E  E  E   
--------------------------|-----------0--L----L-----|-------------------------|
--------------------------|-----------0--L----L-----|-------------------------|
--------------------------|-------------------------|-------------------------|
--L-----7--7--L-----------|-------------------------|----------------4--L-----|
--L--5--5--5--L--5--4-----|--------2-------------4--|--L-----4----L--4--L--5--|
-----------------3--2--0--|--0--0--0-------------2--|--L--2--2----L--2--L--3--|


     PM                        PM                        PM             PM     
  E  E  E  E  Q    E  E     E  E  Q    E  E  E  E     E  E  E  E  E  E  E  E   
-------------------------|-------------------------|--------------------------|
-------------------------|-------------------------|--------------------------|
-------------------------|-------------------------|--------------------------|
----------------------2--|--L-----2----2--2--L--4--|--L-----4--4--4--4-----5--|
--L-----5--5--L----L--0--|--L--0--0----0--0--L--2--|--L--2--2--2--2--2--2--3--|
--L--3--3--3--L----L-----|-------------------------|--------------------------|


     PM                        PM                        PM PM PM PM PM PM     
  E  E  E  E  Q    E  E     E  E  E  E  Q    E  E     E  E  E  E  E  E  E  E   
-------------------------|-------------------------|--------------------------|
-------------------------|-------------------------|--------------------------|
-------------------------|-------------------------|--------------------------|
--L-----5--5--5----L--7--|--L-----7--7--7----L--9--|--L-----------------------|
--L--3--3--3--3----L--5--|--L--5--5--5--5----L--7--|--L--------------------4--|
-------------------------|-------------------------|-----0--0--0--0--0--0--2--|


     PM PM PM PM PM PM          PM PM PM PM PM PM                      PM PM PM  
  E  E  E  E  E  E  E  E     E  E  E  E  E  E  E  E     E  E  E  E  E  E  E  E   
--------------------------|--------------------------|--------------------------|
--------------------------|--------------------------|--------------------------|
--------------------------|--------------------------|--------------------------|
--------------------------|-----------------------2--|--L--------2--L-----------|
--L--------------------5--|--L--------------------0--|--L--0--0--0--L--0--0--0--|
--L--2--2--2--2--2--2--3--|--L--3--3--3--3--3--3-----|--------------------------|


  PM PM PM                                                                      
  E  E  E  E  Q    E  E     E   E  Q    E  E  E  E     E   E  Q    E  E  E  E   
-------------------------|--------------------------|--------------------------|
-------------------------|--------------------------|--------------------------|
----------------------5--|--Ls--7--7----7--7--L--5--|--Ls--7--7----7--7--L-----|
-----------2--L----L--5--|--Ls--7--7----7--7--L--5--|--Ls--7--7----7--7--L--3--|
--0--0--0--0--L----L--3--|--Ls--5--5----5--5--L--3--|--Ls--5--5----5--5--L--3--|
-------------------------|--------------------------|-----------------------1--|


  E   E  Q    Q    E  E     E  E  E  E  Q    E  E     E   E  Q    E  E  E  E   
-------------------------|-------------------------|--------------------------|
-------------------------|-------------------------|--------------------------|
-------------------------|----------------------5--|--Ls--7--7----7--7--L--5--|
--Ls--5--5----5----L--3--|--L--5--7--5--L-------5--|--Ls--7--7----7--7--L--5--|
--Ls--5--5----5----L--3--|--L--5--7--5--L-------3--|--Ls--5--5----5--5--L--3--|
--Ls--3--3----3----L--1--|--L--3--5--3--L----------|--------------------------|


  E   E  Q    E  E  E  E     E   E  Q    E  E  E  E     E  E  E  E  H           W                 
--------------------------|--------------------------|-----------------------|-------------------|
--------------------------|--------------------------|-----------------------|-------------------|
--Ls--7--7----7--7--L-----|--------------------------|-----------------------|-------------------|
--Ls--7--7----7--7--L--3--|--Ls--5--5----5--5--L--3--|--L--5--7--5--L--------|-------------------|
--Ls--5--5----5--5--L--3--|--Ls--5--5----5--5--L--3--|--L--5--7--5--L--------|-------------------|
-----------------------1--|--Ls--3--3----3--3--L--1--|--L--3--5--3--L--------|-------------------|


                                                              PM PM PM      PM PM PM  
  W                   W                   W                   E  E  Q    E  E  E  E   
-------------------|-------------------|-------------------|-------------------------|
-------------------|-------------------|-------------------|-------------------------|
-------------------|-------------------|-------------------|--------4-------4--4-----|
-------------------|-------------------|-------------------|-------------------------|
-------------------|-------------------|-------------------|--3--3----------------2--|
-------------------|-------------------|-------------------|-------------------------|


  PM PM    PM    PM PM PM    PM PM PM PM PM    PM PM    PM PM                    
  E  E  E  E  E  E  E  E     E  E  E  E  E  E  E  E     E  E  E  E  E  E  E  E   
--------------------------|--------------------------|--0-----------------------|
--------------------------|-----0-----------0--------|-----0--------------------|
--4--4-----------4--4-----|--------2-----------2-----|-----------2--------------|
--------------------------|-----------2-----------2--|-----------------4--L--5--|
-----------2-----------2--|--0-----------0-----------|--------0--------2--L--3--|
--------------------------|--------------------------|--------------------------|


  PM PM PM      PM PM PM    PM PM    PM    PM PM      PM PM PM PM PM    PM PM  
  E  E  Q    E  E  E  E     E  E  E  E  E  E  Q       E  E  E  E  E  E  E  E   
-------------------------|-------------------------|--------------------------|
-------------------------|-------------------------|-----0-----------0--------|
--------4-------4--4-----|-----------------4--4----|--------2-----------2-----|
-------------------------|-------------------------|-----------2-----------2--|
--3--3----------------2--|--2--2-----2-------------|--0-----------0-----------|
-------------------------|-------------------------|--------------------------|


  PM                         PM PM               PM    PM PM PM PM PM        PM  
  E  E  E  E  E  E  E  E     E  E  Q    E  E  E  E     E  E  E  E  E  E   E  E   
--0-----------------------|-------------------------|---------------------------|
-----0--L-----------------|-------------------------|---------------------------|
-----------2--L-----------|--------4-------4--4-----|-----------------4p--2-----|
-----------------4--L--5--|-------------------------|--4--4--4--4--4---------2--|
-----------------2--L--3--|--3--3----------------2--|---------------------------|
--------------------------|-------------------------|---------------------------|


  PM PM PM PM                                                     PM PM PM           
              |----3----|                                                            
  E  E  E  E  Q    Q    Q       Q    E  E  Q     Q        Q    E  S  S  E  E  E  E   
--------------0--------------|-------------------------|----------------------------|
-------------------0---------|-------------------------|-------------------9-----7--|
------------------------2----|-------------------------|--9----9-----------9-----8--|
-----------------------------|--2----L--2--L-----------|--9----9-----------9-----9--|
--0--0--0--0-----------------|--0----L--0--L-----------|--7----7--7--7--7-----------|
-----------------------------|------------------12\----|----------------------------|


           PM PM PM PM                      PM PM PM                                      
  E  E  E  S  S  S  S  E  E  E     E  E  E  S  S  E  E  E  E     E  E  E  E  E  E  E  E   
--------------------------------|-----------------------------|--------------------------|
--7--7--7--------------7-----8--|--L--8--8-----------8-----7--|--L--7-----5--L--5--------|
--8--8--8--------------8-----7--|--L--7--7-----------7-----7--|--L--7-----6--L--6-----9--|
--9--9--9--------------9-----9--|--L--9--9-----------9-----7--|--L--7-----7--L--7-----9--|
-----------7--7--7--7-----------|-----------7--7--7--------5--|--L--5-----5--L--5-----7--|
--------------------------------|-----------------------------|--------------------------|


           PM PM PM                      PM PM PM PM                      PM PM PM           
  E  E  E  S  S  E  E  E  E     E  E  E  S  S  S  S  E  E  E     E  E  E  S  S  E  E  E  E   
-----------------------------|--------------------------------|-----------------------------|
--------------------9-----7--|--7--7--7--------------7-----8--|--L--8--8-----------8-----7--|
--L--9--9-----------9-----8--|--8--8--8--------------8-----7--|--L--7--7-----------7-----7--|
--L--9--9-----------9-----9--|--9--9--9--------------9-----9--|--L--9--9-----------9-----7--|
--L--7--7--7--7--7-----------|-----------7--7--7--7-----------|-----------7--7--7--------5--|
-----------------------------|--------------------------------|-----------------------------|


  E  E  E  E  Q    E  E     Q    Q    H           W                   W                 
-------------------------|---------------------|-------------------|-------------------|
--L--7-----5--L----5-----|---------------------|-------------------|-------------------|
--L--7-----6--L----6-----|--9------------------|-------------------|-------------------|
--L--7-----7--L----7-----|--9------------------|-------------------|-------------------|
--L--5-----5--L----5-----|--7------------------|-------------------|-------------------|
----------------------0--|---------------------|-------------------|-------------------|


                              PM PM PM                      PM PM PM PM           
  W                   Q    E  S  S  E  E  E  E     E  E  E  S  S  S  S  E  E  E   
-------------------|----------------------------|--------------------------------|
-------------------|-------------------9-----7--|--7--7--7--------------7-----8--|
-------------------|--9----9-----------9-----8--|--8--8--8--------------8-----7--|
-------------------|--9----9-----------9-----9--|--9--9--9--------------9-----9--|
-------------------|--7----7--7--7--7-----------|-----------7--7--7--7-----------|
-------------------|----------------------------|--------------------------------|


           PM PM PM                                                 PM PM PM           
  E  E  E  S  S  E  E  E  E     E  E  E  E  E  E  E  E     E  E  E  S  S  E  E  E  E   
-----------------------------|--------------------------|-----------------------------|
--L--8--8-----------8-----7--|--L--7-----5--L--5--------|--------------------9-----7--|
--L--7--7-----------7-----7--|--L--7-----6--L--6-----9--|--L--9--9-----------9-----8--|
--L--9--9-----------9-----7--|--L--7-----7--L--7-----9--|--L--9--9-----------9-----9--|
-----------7--7--7--------5--|--L--5-----5--L--5-----7--|--L--7--7--7--7--7-----------|
-----------------------------|--------------------------|-----------------------------|


           PM PM PM PM                      PM PM PM                                      
  E  E  E  S  S  S  S  E  E  E     E  E  E  S  S  E  E  E  E     E  E  E  E  E  E  E  E   
--------------------------------|-----------------------------|--------------------------|
--7--7--7--------------7-----8--|--L--8--8-----------8-----7--|--L--7-----5--L--5--------|
--8--8--8--------------8-----7--|--L--7--7-----------7-----7--|--L--7-----6--L--6-----9--|
--9--9--9--------------9-----9--|--L--9--9-----------9-----7--|--L--7-----7--L--7-----9--|
-----------7--7--7--7-----------|-----------7--7--7--------5--|--L--5-----5--L--5-----7--|
--------------------------------|-----------------------------|--------------------------|


  H.           E  E     H.           E  E     H.           E  E     E  E  E  E  E  E  E  E   
---------------------|---------------------|---------------------|--------------------------|
---------------------|------------------8--|--L------------L--7--|--L--7-----5--L--5--------|
--L------------L--8--|--L------------L--7--|--L------------L--7--|--L--7-----6--L--6-----9--|
--L------------L--9--|--L------------L--9--|--L------------L--7--|--L--7-----7--L--7-----9--|
--L------------L--7--|--L------------L--7--|--L------------L--5--|--L--5-----5--L--5-----7--|
---------------------|---------------------|---------------------|--------------------------|


  H.           E  E     H.           E  E     H.           E  E     E  E  E  E  E  E  E  E   
---------------------|---------------------|---------------------|--------------------------|
---------------------|------------------8--|--L------------L--7--|--L--7-----5--L--5--------|
--L------------L--8--|--L------------L--7--|--L------------L--7--|--L--7-----6--L--6-----9--|
--L------------L--9--|--L------------L--9--|--L------------L--7--|--L--7-----7--L--7-----9--|
--L------------L--7--|--L------------L--7--|--L------------L--5--|--L--5-----5--L--5-----7--|
---------------------|---------------------|---------------------|--------------------------|


  H.           E  E     H.           E  E     H.           E  E     E  E  E  E  E  E  E  E   
---------------------|---------------------|---------------------|--------------------------|
---------------------|------------------8--|--L------------L--7--|--L--7-----5--L--5--------|
--L------------L--8--|--L------------L--7--|--L------------L--7--|--L--7-----6--L--6-----9--|
--L------------L--9--|--L------------L--9--|--L------------L--7--|--L--7-----7--L--7-----9--|
--L------------L--7--|--L------------L--7--|--L------------L--5--|--L--5-----5--L--5-----7--|
---------------------|---------------------|---------------------|--------------------------|


  H.           E  E     H.           E  E     H.           E  E     E  E  E  E  E  E  E  E   
---------------------|---------------------|---------------------|--------------------------|
---------------------|------------------8--|--L------------L--7--|--L--7-----5--L--5--------|
--L------------L--8--|--L------------L--7--|--L------------L--7--|--L--7-----6--L--6-----9--|
--L------------L--9--|--L------------L--9--|--L------------L--7--|--L--7-----7--L--7-----9--|
--L------------L--7--|--L------------L--7--|--L------------L--5--|--L--5-----5--L--5-----7--|
---------------------|---------------------|---------------------|--------------------------|


  H.           E  E     H.           E  E     H.           E  E     E  E  E  E  E  E  E  E   
---------------------|---------------------|---------------------|--------------------------|
---------------------|------------------8--|--L------------L--7--|--L--7-----5--L--5--------|
--L------------L--8--|--L------------L--7--|--L------------L--7--|--L--7-----6--L--6-----9--|
--L------------L--9--|--L------------L--9--|--L------------L--7--|--L--7-----7--L--7-----9--|
--L------------L--7--|--L------------L--7--|--L------------L--5--|--L--5-----5--L--5-----7--|
---------------------|---------------------|---------------------|--------------------------|


  H.           E  E     H.           E  E     H.           E  E     E  E  E  E  E  E  E  E   
---------------------|---------------------|---------------------|--------------------------|
---------------------|------------------8--|--L------------L--7--|--L--7-----5--L--5--------|
--L------------L--8--|--L------------L--7--|--L------------L--7--|--L--7-----6--L--6-----9--|
--L------------L--9--|--L------------L--9--|--L------------L--7--|--L--7-----7--L--7-----9--|
--L------------L--7--|--L------------L--7--|--L------------L--5--|--L--5-----5--L--5-----7--|
---------------------|---------------------|---------------------|--------------------------|


  H.           E  E     H.           E  E    
---------------------|---------------------||
---------------------|------------------8--||
--L------------L--8--|--L------------L--7--||
--L------------L--9--|--L------------L--9--||
--L------------L--7--|--L------------L--7--||
---------------------|---------------------||




Clean Guitar


     W                   W                   W                   W                 
E||-------------------|-------------------|-------------------|-------------------|
B||-------------------|-------------------|-------------------|-------------------|
G||-------------------|-------------------|-------------------|-------------------|
D||-------------------|-------------------|-------------------|-------------------|
A||-------------------|-------------------|-------------------|-------------------|
E||-------------------|-------------------|-------------------|-------------------|


  W                   W                   W                   W                   W                 
-------------------|-------------------|-------------------|-------------------|-------------------|
-------------------|-------------------|-------------------|-------------------|-------------------|
-------------------|-------------------|-------------------|-------------------|-------------------|
-------------------|-------------------|-------------------|-------------------|-------------------|
-------------------|-------------------|-------------------|-------------------|-------------------|
-------------------|-------------------|-------------------|-------------------|-------------------|


  W                   W                   W                   W                   W                 
-------------------|-------------------|-------------------|-------------------|-------------------|
-------------------|-------------------|-------------------|-------------------|-------------------|
-------------------|-------------------|-------------------|-------------------|-------------------|
-------------------|-------------------|-------------------|-------------------|-------------------|
-------------------|-------------------|-------------------|-------------------|-------------------|
-------------------|-------------------|-------------------|-------------------|-------------------|


  W                   W                   W                   W                   W                 
-------------------|-------------------|-------------------|-------------------|-------------------|
-------------------|-------------------|-------------------|-------------------|-------------------|
-------------------|-------------------|-------------------|-------------------|-------------------|
-------------------|-------------------|-------------------|-------------------|-------------------|
-------------------|-------------------|-------------------|-------------------|-------------------|
-------------------|-------------------|-------------------|-------------------|-------------------|


  W                   W                   W                   W                   W                 
-------------------|-------------------|-------------------|-------------------|-------------------|
-------------------|-------------------|-------------------|-------------------|-------------------|
-------------------|-------------------|-------------------|-------------------|-------------------|
-------------------|-------------------|-------------------|-------------------|-------------------|
-------------------|-------------------|-------------------|-------------------|-------------------|
-------------------|-------------------|-------------------|-------------------|-------------------|


  W                   W                   W                   W                   W                 
-------------------|-------------------|-------------------|-------------------|-------------------|
-------------------|-------------------|-------------------|-------------------|-------------------|
-------------------|-------------------|-------------------|-------------------|-------------------|
-------------------|-------------------|-------------------|-------------------|-------------------|
-------------------|-------------------|-------------------|-------------------|-------------------|
-------------------|-------------------|-------------------|-------------------|-------------------|


  W                   W                   W                   W                   W                 
-------------------|-------------------|-------------------|-------------------|-------------------|
-------------------|-------------------|-------------------|-------------------|-------------------|
-------------------|-------------------|-------------------|-------------------|-------------------|
-------------------|-------------------|-------------------|-------------------|-------------------|
-------------------|-------------------|-------------------|-------------------|-------------------|
-------------------|-------------------|-------------------|-------------------|-------------------|


  W                   W                   W                   W                   W                 
-------------------|-------------------|-------------------|-------------------|-------------------|
-------------------|-------------------|-------------------|-------------------|-------------------|
-------------------|-------------------|-------------------|-------------------|-------------------|
-------------------|-------------------|-------------------|-------------------|-------------------|
-------------------|-------------------|-------------------|-------------------|-------------------|
-------------------|-------------------|-------------------|-------------------|-------------------|


  W                   W                   W                   W                   W                 
-------------------|-------------------|-------------------|-------------------|-------------------|
-------------------|-------------------|-------------------|-------------------|-------------------|
-------------------|-------------------|-------------------|-------------------|-------------------|
-------------------|-------------------|-------------------|-------------------|-------------------|
-------------------|-------------------|-------------------|-------------------|-------------------|
-------------------|-------------------|-------------------|-------------------|-------------------|


                      ^               ^                          ^                            
  W                   H.           E  E     E  E  E  E  E  E  E  E     E   E  E  E  H         
-------------------|--0------------L--0--|--L-----------------------|------------------------|
-------------------|--0------------L--0--|--L--0-----0--L--0--L--0--|--Lh--2-----------------|
-------------------|--4------------L--2--|--L-----2--------------2--|--L------2--------------|
-------------------|--5------------L--4--|--L--------------------2--|--L------------2--------|
-------------------|---------------------|--------------------------|------------0-----------|
-------------------|---------------------|--------------------------|------------------------|


                      ^               ^                     ^                       
  W                   H.           E  E     H.           E  E     W                 
-------------------|--0------------L--0--|--L------------L-----|-------------------|
-------------------|--0------------L--0--|--L------------L--0--|--L----------------|
-------------------|--4------------L--2--|--L------------L--2--|--L----------------|
--L----------------|--5------------L--4--|--L------------L--2--|--L----------------|
-------------------|---------------------|---------------------|-------------------|
-------------------|---------------------|---------------------|-------------------|


  W                   W                   W                   W                   W                 
-------------------|-------------------|-------------------|-------------------|-------------------|
--L----------------|-------------------|-------------------|-------------------|-------------------|
--L----------------|-------------------|-------------------|-------------------|-------------------|
--L----------------|-------------------|-------------------|-------------------|-------------------|
-------------------|-------------------|-------------------|-------------------|-------------------|
-------------------|-------------------|-------------------|-------------------|-------------------|


  W                   W                   W                   W                   W                 
-------------------|-------------------|-------------------|-------------------|-------------------|
-------------------|-------------------|-------------------|-------------------|-------------------|
-------------------|-------------------|-------------------|-------------------|-------------------|
-------------------|-------------------|-------------------|-------------------|-------------------|
-------------------|-------------------|-------------------|-------------------|-------------------|
-------------------|-------------------|-------------------|-------------------|-------------------|


  W                   W                   W                   W                   W                 
-------------------|-------------------|-------------------|-------------------|-------------------|
-------------------|-------------------|-------------------|-------------------|-------------------|
-------------------|-------------------|-------------------|-------------------|-------------------|
-------------------|-------------------|-------------------|-------------------|-------------------|
-------------------|-------------------|-------------------|-------------------|-------------------|
-------------------|-------------------|-------------------|-------------------|-------------------|


  W                   W                   W                   W                   W                 
-------------------|-------------------|-------------------|-------------------|-------------------|
-------------------|-------------------|-------------------|-------------------|-------------------|
-------------------|-------------------|-------------------|-------------------|-------------------|
-------------------|-------------------|-------------------|-------------------|-------------------|
-------------------|-------------------|-------------------|-------------------|-------------------|
-------------------|-------------------|-------------------|-------------------|-------------------|


  W                   W                   W                   W                   W                 
-------------------|-------------------|-------------------|-------------------|-------------------|
-------------------|-------------------|-------------------|-------------------|-------------------|
-------------------|-------------------|-------------------|-------------------|-------------------|
-------------------|-------------------|-------------------|-------------------|-------------------|
-------------------|-------------------|-------------------|-------------------|-------------------|
-------------------|-------------------|-------------------|-------------------|-------------------|


  W                   W                   W                   W                   W                 
-------------------|-------------------|-------------------|-------------------|-------------------|
-------------------|-------------------|-------------------|-------------------|-------------------|
-------------------|-------------------|-------------------|-------------------|-------------------|
-------------------|-------------------|-------------------|-------------------|-------------------|
-------------------|-------------------|-------------------|-------------------|-------------------|
-------------------|-------------------|-------------------|-------------------|-------------------|


                                                              ^                 
  W                   W                   W                   W                 
-------------------|-------------------|-------------------|--0----------------|
-------------------|-------------------|-------------------|--0----------------|
-------------------|-------------------|-------------------|--4----------------|
-------------------|-------------------|-------------------|--5----------------|
-------------------|-------------------|-------------------|-------------------|
-------------------|-------------------|-------------------|-------------------|


  ^                         ^                                              ^                 
  E  E  E  E  E  E  Q       E  E  E  E  E  E  E  E     W                   W                 
--0----------------------|--0-----------0-----------|-------------------|--0----------------|
--0--0-----0--L--0--L----|--0--0-----0-----0-----0--|--L----------------|--0----------------|
--2-----2----------------|--2-----2-----------2-----|-------------------|--4----------------|
--4----------------------|--2-----------------------|-------------------|--5----------------|
-------------------------|--------------------------|-------------------|-------------------|
-------------------------|--------------------------|-------------------|-------------------|


  ^                   ^                                       ^                   ^                 
  W                   W                   W                   W                   W                 
--0----------------|--0----------------|--L----------------|--0----------------|--0----------------|
--0----------------|--3----------------|--L----------------|--0----------------|--0----------------|
--2----------------|--2----------------|--L----------------|--4----------------|--2----------------|
--4----------------|--2----------------|--L----------------|--5----------------|--4----------------|
-------------------|-------------------|-------------------|-------------------|-------------------|
-------------------|-------------------|-------------------|-------------------|-------------------|


  ^                                       ^                   ^                   ^                 
  W                   W                   W                   W                   W                 
--0----------------|--L----------------|--0----------------|--0----------------|--0----------------|
--0----------------|--L----------------|--0----------------|--0----------------|--0----------------|
--2----------------|--L----------------|--4----------------|--2----------------|--2----------------|
--2----------------|--L----------------|--5----------------|--4----------------|--2----------------|
-------------------|-------------------|-------------------|-------------------|-------------------|
-------------------|-------------------|-------------------|-------------------|-------------------|


  W                   W                   W                   W                   W                 
--L----------------|-------------------|-------------------|-------------------|-------------------|
--L----------------|-------------------|-------------------|-------------------|-------------------|
--L----------------|-------------------|-------------------|-------------------|-------------------|
--L----------------|-------------------|-------------------|-------------------|-------------------|
-------------------|-------------------|-------------------|-------------------|-------------------|
-------------------|-------------------|-------------------|-------------------|-------------------|


  W                   W                   W                   W                   W                 
-------------------|-------------------|-------------------|-------------------|-------------------|
-------------------|-------------------|-------------------|-------------------|-------------------|
-------------------|-------------------|-------------------|-------------------|-------------------|
-------------------|-------------------|-------------------|-------------------|-------------------|
-------------------|-------------------|-------------------|-------------------|-------------------|
-------------------|-------------------|-------------------|-------------------|-------------------|


  W                   W                   W                   W                   W                 
-------------------|-------------------|-------------------|-------------------|-------------------|
-------------------|-------------------|-------------------|-------------------|-------------------|
-------------------|-------------------|-------------------|-------------------|-------------------|
-------------------|-------------------|-------------------|-------------------|-------------------|
-------------------|-------------------|-------------------|-------------------|-------------------|
-------------------|-------------------|-------------------|-------------------|-------------------|


  W                   W                   W                   W                   W                 
-------------------|-------------------|-------------------|-------------------|-------------------|
-------------------|-------------------|-------------------|-------------------|-------------------|
-------------------|-------------------|-------------------|-------------------|-------------------|
-------------------|-------------------|-------------------|-------------------|-------------------|
-------------------|-------------------|-------------------|-------------------|-------------------|
-------------------|-------------------|-------------------|-------------------|-------------------|


  W                   W                   W                   W                   W                 
-------------------|-------------------|-------------------|-------------------|-------------------|
-------------------|-------------------|-------------------|-------------------|-------------------|
-------------------|-------------------|-------------------|-------------------|-------------------|
-------------------|-------------------|-------------------|-------------------|-------------------|
-------------------|-------------------|-------------------|-------------------|-------------------|
-------------------|-------------------|-------------------|-------------------|-------------------|


  W                   W                   W                   W                   W                 
-------------------|-------------------|-------------------|-------------------|-------------------|
-------------------|-------------------|-------------------|-------------------|-------------------|
-------------------|-------------------|-------------------|-------------------|-------------------|
-------------------|-------------------|-------------------|-------------------|-------------------|
-------------------|-------------------|-------------------|-------------------|-------------------|
-------------------|-------------------|-------------------|-------------------|-------------------|


  W                   W                   W                   W                   W                 
-------------------|-------------------|-------------------|-------------------|-------------------|
-------------------|-------------------|-------------------|-------------------|-------------------|
-------------------|-------------------|-------------------|-------------------|-------------------|
-------------------|-------------------|-------------------|-------------------|-------------------|
-------------------|-------------------|-------------------|-------------------|-------------------|
-------------------|-------------------|-------------------|-------------------|-------------------|


  W                   W                   W                   W                   W                 
-------------------|-------------------|-------------------|-------------------|-------------------|
-------------------|-------------------|-------------------|-------------------|-------------------|
-------------------|-------------------|-------------------|-------------------|-------------------|
-------------------|-------------------|-------------------|-------------------|-------------------|
-------------------|-------------------|-------------------|-------------------|-------------------|
-------------------|-------------------|-------------------|-------------------|-------------------|


  W                   W                   W                   W                   W                 
-------------------|-------------------|-------------------|-------------------|-------------------|
-------------------|-------------------|-------------------|-------------------|-------------------|
-------------------|-------------------|-------------------|-------------------|-------------------|
-------------------|-------------------|-------------------|-------------------|-------------------|
-------------------|-------------------|-------------------|-------------------|-------------------|
-------------------|-------------------|-------------------|-------------------|-------------------|


  W                   W                  
-------------------|-------------------||
-------------------|-------------------||
-------------------|-------------------||
-------------------|-------------------||
-------------------|-------------------||
-------------------|-------------------||



Lead - left



     W                   W                   W                   W                 
E||-------------------|-------------------|-------------------|-------------------|
B||-------------------|-------------------|-------------------|-------------------|
G||-------------------|-------------------|-------------------|-------------------|
D||-------------------|-------------------|-------------------|-------------------|
A||-------------------|-------------------|-------------------|-------------------|
E||-------------------|-------------------|-------------------|-------------------|


  W                   W                   W                   W                   W                 
-------------------|-------------------|-------------------|-------------------|-------------------|
-------------------|-------------------|-------------------|-------------------|-------------------|
-------------------|-------------------|-------------------|-------------------|-------------------|
-------------------|-------------------|-------------------|-------------------|-------------------|
-------------------|-------------------|-------------------|-------------------|-------------------|
-------------------|-------------------|-------------------|-------------------|-------------------|


      PM  PM  PM  PM  PM  PM PM       PM PM  PM PM PM  PM PM     PM PM PM  PM PM PM  PM     
  E   E   E   E   E   E   E  E     E  E  E   E  E  E   E  E      E  E  E   E  E  E   E  E   
--------------------------------|----------------------------|-----------------------------|
-----10---L------10----------8--|-----8---------8---------8--|------9---------9------------|
---------------------10---------|--------9---------9---------|---------8---------8---------|
-------------10----------10-----|-----------10--------10-----|--10--------10--------10-----|
--------------------------------|----------------------------|-----------------------------|
--------------------------------|----------------------------|-----------------------------|


                          PM  PM  PM  PM  PM  PM PM    PM PM PM  PM PM PM  PM PM  
  W                   E   E   E   E   E   E   E  E     E  E  E   E  E  E   E  E   
-------------------|--------------------------------|----------------------------|
-------------------|-----10----------10----------8--|--L--8---------8---------8--|
-------------------|---------10----------10---------|--------9---------9---------|
-------------------|-------------10----------10-----|-----------10--------10-----|
-------------------|--------------------------------|----------------------------|
-------------------|--------------------------------|----------------------------|


     PM PM  PM PM PM                                                                     
  E  E  E   E  E  E   E  E     W                   W                   W                 
----------------------------|-------------------|-------------------|-------------------|
-----9---------9------------|-------------------|-------------------|-------------------|
--------8---------8---------|-------------------|-------------------|-------------------|
-----------10--------10-----|-------------------|-------------------|-------------------|
----------------------------|-------------------|-------------------|-------------------|
----------------------------|-------------------|-------------------|-------------------|


  W                   W                   W                   W                   W                 
-------------------|-------------------|-------------------|-------------------|-------------------|
-------------------|-------------------|-------------------|-------------------|-------------------|
-------------------|-------------------|-------------------|-------------------|-------------------|
-------------------|-------------------|-------------------|-------------------|-------------------|
-------------------|-------------------|-------------------|-------------------|-------------------|
-------------------|-------------------|-------------------|-------------------|-------------------|


  W                   W                   W                   W                   W                 
-------------------|-------------------|-------------------|-------------------|-------------------|
-------------------|-------------------|-------------------|-------------------|-------------------|
-------------------|-------------------|-------------------|-------------------|-------------------|
-------------------|-------------------|-------------------|-------------------|-------------------|
-------------------|-------------------|-------------------|-------------------|-------------------|
-------------------|-------------------|-------------------|-------------------|-------------------|


      PM  PM  PM  PM  PM  PM PM       PM PM  PM PM PM  PM PM     PM PM PM  PM PM PM  PM     
  E   E   E   E   E   E   E  E     E  E  E   E  E  E   E  E      E  E  E   E  E  E   E  E   
--------------------------------|----------------------------|-----------------------------|
-----10---L------10----------8--|-----8---------8---------8--|------9---------9------------|
---------------------10---------|--------9---------9---------|---------8---------8---------|
-------------10----------10-----|-----------10--------10-----|--10--------10--------10-----|
--------------------------------|----------------------------|-----------------------------|
--------------------------------|----------------------------|-----------------------------|


                          PM  PM  PM  PM  PM  PM PM    PM PM PM  PM PM PM  PM PM  
  W                   E   E   E   E   E   E   E  E     E  E  E   E  E  E   E  E   
-------------------|--------------------------------|----------------------------|
-------------------|-----10----------10----------8--|--L--8---------8---------8--|
-------------------|---------10----------10---------|--------9---------9---------|
-------------------|-------------10----------10-----|-----------10--------10-----|
-------------------|--------------------------------|----------------------------|
-------------------|--------------------------------|----------------------------|


   PM PM PM  PM PM PM  PM                                                                 
   E  E  E   E  E  E   E  E     W                   W                   W                 
-----------------------------|-------------------|-------------------|-------------------|
------9---------9------------|-------------------|-------------------|-------------------|
---------8---------8---------|-------------------|-------------------|-------------------|
--10--------10--------10-----|-------------------|-------------------|-------------------|
-----------------------------|-------------------|-------------------|-------------------|
-----------------------------|-------------------|-------------------|-------------------|


  W                   W                   W                   W                   W                 
-------------------|-------------------|-------------------|-------------------|-------------------|
-------------------|-------------------|-------------------|-------------------|-------------------|
-------------------|-------------------|-------------------|-------------------|-------------------|
-------------------|-------------------|-------------------|-------------------|-------------------|
-------------------|-------------------|-------------------|-------------------|-------------------|
-------------------|-------------------|-------------------|-------------------|-------------------|


  W                   W                   W                   W                   W                 
-------------------|-------------------|-------------------|-------------------|-------------------|
-------------------|-------------------|-------------------|-------------------|-------------------|
-------------------|-------------------|-------------------|-------------------|-------------------|
-------------------|-------------------|-------------------|-------------------|-------------------|
-------------------|-------------------|-------------------|-------------------|-------------------|
-------------------|-------------------|-------------------|-------------------|-------------------|


  W                   W                   W                   W                   W                 
-------------------|-------------------|-------------------|-------------------|-------------------|
-------------------|-------------------|-------------------|-------------------|-------------------|
-------------------|-------------------|-------------------|-------------------|-------------------|
-------------------|-------------------|-------------------|-------------------|-------------------|
-------------------|-------------------|-------------------|-------------------|-------------------|
-------------------|-------------------|-------------------|-------------------|-------------------|


  W                   W                   W                   W                   W                 
-------------------|-------------------|-------------------|-------------------|-------------------|
-------------------|-------------------|-------------------|-------------------|-------------------|
-------------------|-------------------|-------------------|-------------------|-------------------|
-------------------|-------------------|-------------------|-------------------|-------------------|
-------------------|-------------------|-------------------|-------------------|-------------------|
-------------------|-------------------|-------------------|-------------------|-------------------|


  W                   H        Q    E   S   S   
-------------------|-------------------12h-15h-|
-------------------|---------------------------|
-------------------|---------------------------|
-------------------|---------------------------|
-------------------|---------------------------|
-------------------|---------------------------|


                           |-3-|   |---3---|  |---3--|  |-3-|   |---3--|  |--3--|  
   T  T   S  T  S  X   X   E   S   S   S   S  S   S  S  E   S   S   S  S  S  S  S  
--12--------------12h-15p-12-----------------15p-12--------12h-15p-12-------------|
-----13p-12--L-13-------------13p-12h-13p-12--------13----------------13----13----|
-------------------------------------------------------14----------------14----14-|
----------------------------------------------------------------------------------|
----------------------------------------------------------------------------------|
----------------------------------------------------------------------------------|


   |---3---|  |--|   |---3--|      |---3--|      |---3--|      
   S   S   S  S  E   S   S  S  E   S   S  S  E   S   S  S  E   
--14h-17p-14--------14h-17-14-----14h-17-14-----14h-17-14-----|
-------------15-14------------15------------15------------15--|
--------------------------------------------------------------|
--------------------------------------------------------------|
--------------------------------------------------------------|
--------------------------------------------------------------|


                                    |---3--|   |--3--|             
   S   S  S  S  T   S   T  T  S  T  S  S   S   S  S  S  S  S  E    
--19p-15-------15h-19p-15--L----------15h-19p-15------------------|
---------17------------------17----17------------17----17-20-20b--|
------------16------------------16------------------16------------|
------------------------------------------------------------------|
------------------------------------------------------------------|
------------------------------------------------------------------|


   |---3---|                                                           
   S   S   S  E   H         E   E      E   E   E   E   Q      E    E   
--17h-22p-17-----------------------|----------------------------------|
-------------20--------------------|----------------------------------|
-----------------19~---------------|--11--------------------------14--|
-------------------------------14--|----------12--14---L~----12\------|
-----------------------------------|------14--------------------------|
-----------------------------------|----------------------------------|


   E   E   E   E    E    E     E   E      E   E   E   E    Q     E   E   
----------------------------------14--|---L--15--14--15b---L----15--14--|
------12------14~---L~---Lbr---L------|---------------------------------|
---L------14--------------------------|---------------------------------|
--------------------------------------|---------------------------------|
--------------------------------------|---------------------------------|
--------------------------------------|---------------------------------|


                                   T       T      T      T               
   H.             E    E       S   S   S   S  S   S  S   S Q.        E   
--12~-------------L\-------|--------------------------------------------|
---------------------------|--------------------------------------------|
----------------------10h--|--11h-16p-10h-16p-9h-16p-7h-12-4s~------10--|
---------------------------|--------------------------------------------|
---------------------------|--------------------------------------------|
---------------------------|--------------------------------------------|


                                                             W                
   S   S  E   S  S  S  S  Q      E   E       E   E   E   E   E   E   E    E   
------12--------------------------------|------------------------------------|
----------------------------------------|---------------13-------------------|
--14b----15--14-12----------------------|-------12--14------14---L\-----/14--|
-------------------14-12-14s~----7--10--|--/14-------------------------------|
----------------------------------------|------------------------------------|
----------------------------------------|------------------------------------|


   E    E   E   E   E    E   E   E      E    E   E    E   Q       E   E   
------------------------------------|-----------14h--15---Lbr----14--15--|
-------12--13-----------12--13------|-------12---------------------------|
---Lb----------14---Lb----------14--|---Lb-------------------------------|
------------------------------------|------------------------------------|
------------------------------------|------------------------------------|
------------------------------------|------------------------------------|


      |---3---|                  |---3---|                                                   
      S   S   S  E   E   E   E   S   S   S  E   E      E   E   E   E   E      E   S   S  E   
--14g15p-14p-12-----12-----------------------------|--------------12---L--------------------|
----------------15------13--15--13h-15p-13-12--14--|---L--14------12---L--10g12--12p-10-----|
-----------------------------------------------14--|---L------14--12---L----------------12--|
---------------------------------------------------|----------------------------------------|
---------------------------------------------------|----------------------------------------|
---------------------------------------------------|----------------------------------------|


   E   E   E  E  H           W                    W                   W                 
--------------------------|--------------------|-------------------|-------------------|
------10------8--L--------|--L\----------------|-------------------|-------------------|
--11------11--9--L--------|--L\----------------|-------------------|-------------------|
--------------------------|--------------------|-------------------|-------------------|
--------------------------|--------------------|-------------------|-------------------|
--------------------------|--------------------|-------------------|-------------------|


  W                   W                   W                   W                   W                 
-------------------|-------------------|-------------------|-------------------|-------------------|
-------------------|-------------------|-------------------|-------------------|-------------------|
-------------------|-------------------|-------------------|-------------------|-------------------|
-------------------|-------------------|-------------------|-------------------|-------------------|
-------------------|-------------------|-------------------|-------------------|-------------------|
-------------------|-------------------|-------------------|-------------------|-------------------|


                                                                                 NH  
  W                   W                   W                   H        Q    E    E   
-------------------|-------------------|-------------------|-------------------<>5--|
-------------------|-------------------|-------------------|------------------------|
-------------------|-------------------|-------------------|------------------------|
-------------------|-------------------|-------------------|------------------------|
-------------------|-------------------|-------------------|------------------------|
-------------------|-------------------|-------------------|------------------------|


    NH       NH   NH       NH      NH       NH   NH            NH                
    Q.       E    Q.       E       Q.       E    H             W                 
--<>L-------------------------|---------------------------|---------------------|
-----------<>5--<>L-----------|---------------------------|---------------------|
-------------------------<>5--|--<>L----------------------|--<>5----------------|
------------------------------|-----------<>5--<>L--------|--<>5----------------|
------------------------------|---------------------------|---------------------|
------------------------------|---------------------------|---------------------|


    NH   NH   NH   NH   NH   NH   NH                                                                
    E    E    E    E    E    E    Q       W                   W                   W                 
---------------------------------------|-------------------|-------------------|-------------------|
---------------------------<>7--<>L----|-------------------|-------------------|-------------------|
-----------------<>5--<>L--------------|-------------------|-------------------|-------------------|
-------<>5--<>L------------------------|-------------------|-------------------|-------------------|
--<>5----------------------------------|-------------------|-------------------|-------------------|
---------------------------------------|-------------------|-------------------|-------------------|


  W                   W                   W                   W                   W                 
-------------------|-------------------|-------------------|-------------------|-------------------|
-------------------|-------------------|-------------------|-------------------|-------------------|
-------------------|-------------------|-------------------|-------------------|-------------------|
-------------------|-------------------|-------------------|-------------------|-------------------|
-------------------|-------------------|-------------------|-------------------|-------------------|
-------------------|-------------------|-------------------|-------------------|-------------------|


  W                   W                   W                   W                   W                 
-------------------|-------------------|-------------------|-------------------|-------------------|
-------------------|-------------------|-------------------|-------------------|-------------------|
-------------------|-------------------|-------------------|-------------------|-------------------|
-------------------|-------------------|-------------------|-------------------|-------------------|
-------------------|-------------------|-------------------|-------------------|-------------------|
-------------------|-------------------|-------------------|-------------------|-------------------|


  W                   W                   W                   W                   W                 
-------------------|-------------------|-------------------|-------------------|-------------------|
-------------------|-------------------|-------------------|-------------------|-------------------|
-------------------|-------------------|-------------------|-------------------|-------------------|
-------------------|-------------------|-------------------|-------------------|-------------------|
-------------------|-------------------|-------------------|-------------------|-------------------|
-------------------|-------------------|-------------------|-------------------|-------------------|


  W                   W                   W                   W                   W                 
-------------------|-------------------|-------------------|-------------------|-------------------|
-------------------|-------------------|-------------------|-------------------|-------------------|
-------------------|-------------------|-------------------|-------------------|-------------------|
-------------------|-------------------|-------------------|-------------------|-------------------|
-------------------|-------------------|-------------------|-------------------|-------------------|
-------------------|-------------------|-------------------|-------------------|-------------------|


  W                   W                   W                   W                   W                 
-------------------|-------------------|-------------------|-------------------|-------------------|
-------------------|-------------------|-------------------|-------------------|-------------------|
-------------------|-------------------|-------------------|-------------------|-------------------|
-------------------|-------------------|-------------------|-------------------|-------------------|
-------------------|-------------------|-------------------|-------------------|-------------------|
-------------------|-------------------|-------------------|-------------------|-------------------|


     PM PM PM PM PM PM PM       PM PM PM PM PM PM PM       PM PM PM PM PM PM     
  E  E  E  E  E  E  E  E     E  E  E  E  E  E  E  E     E  E  E  E  E  E  E  E   
--------------------------|--------------------------|--------------------------|
-----9--------9--------7--|-----7--------7--------7--|-----8--------8-----------|
--------9--------9--------|--------8--------8--------|--------7--------7--------|
-----------9--------9-----|-----------9--------9-----|-----------9--------9-----|
--------------------------|--------------------------|--------------------------|
--------------------------|--------------------------|--------------------------|


                         PM PM PM PM PM PM PM       PM PM PM PM PM PM PM  
  W                   E  E  E  E  E  E  E  E     E  E  E  E  E  E  E  E   
-------------------|--------------------------|--------------------------|
-------------------|-----9--------9--------7--|-----7--------7--------7--|
-------------------|--------9--------9--------|--------8--------8--------|
-------------------|-----------9--------9-----|-----------9--------9-----|
-------------------|--------------------------|--------------------------|
-------------------|--------------------------|--------------------------|


     PM PM PM PM PM PM                              PM PM PM PM PM PM PM  
  E  E  E  E  E  E  E  E     W                   E  E  E  E  E  E  E  E   
--------------------------|-------------------|--------------------------|
-----8--------8-----------|-------------------|-----9--------9--------7--|
--------7--------7--------|-------------------|--------9--------9--------|
-----------9--------9-----|-------------------|-----------9--------9-----|
--------------------------|-------------------|--------------------------|
--------------------------|-------------------|--------------------------|


     PM PM PM PM PM PM PM       PM PM PM PM PM PM                         
  E  E  E  E  E  E  E  E     E  E  E  E  E  E  E  E     W                 
--------------------------|--------------------------|-------------------|
-----7--------7--------7--|-----8--------8-----------|-------------------|
--------8--------8--------|--------7--------7--------|-------------------|
-----------9--------9-----|-----------9--------9-----|-------------------|
--------------------------|--------------------------|-------------------|
--------------------------|--------------------------|-------------------|


     PM PM PM PM PM PM PM       PM PM PM PM PM PM PM       PM PM PM PM PM PM     
  E  E  E  E  E  E  E  E     E  E  E  E  E  E  E  E     E  E  E  E  E  E  E  E   
--------------------------|--------------------------|--------------------------|
-----9--------9--------7--|-----7--------7--------7--|-----8--------8-----------|
--------9--------9--------|--------8--------8--------|--------7--------7--------|
-----------9--------9-----|-----------9--------9-----|-----------9--------9-----|
--------------------------|--------------------------|--------------------------|
--------------------------|--------------------------|--------------------------|


                         PM PM PM PM PM PM PM       PM PM PM PM PM PM PM  
  W                   E  E  E  E  E  E  E  E     E  E  E  E  E  E  E  E   
-------------------|--------------------------|--------------------------|
-------------------|-----9--------9--------7--|-----7--------7--------7--|
-------------------|--------9--------9--------|--------8--------8--------|
-------------------|-----------9--------9-----|-----------9--------9-----|
-------------------|--------------------------|--------------------------|
-------------------|--------------------------|--------------------------|


     PM PM PM PM PM PM                              PM PM PM PM PM PM PM  
  E  E  E  E  E  E  E  E     W                   E  E  E  E  E  E  E  E   
--------------------------|-------------------|--------------------------|
-----8--------8-----------|-------------------|-----9--------9--------7--|
--------7--------7--------|-------------------|--------9--------9--------|
-----------9--------9-----|-------------------|-----------9--------9-----|
--------------------------|-------------------|--------------------------|
--------------------------|-------------------|--------------------------|


     PM PM PM PM PM PM PM       PM PM PM PM PM PM                         
  E  E  E  E  E  E  E  E     E  E  E  E  E  E  E  E     W                 
--------------------------|--------------------------|-------------------|
-----7--------7--------7--|-----8--------8-----------|-------------------|
--------8--------8--------|--------7--------7--------|-------------------|
-----------9--------9-----|-----------9--------9-----|-------------------|
--------------------------|--------------------------|-------------------|
--------------------------|--------------------------|-------------------|


     PM PM PM PM PM PM PM       PM PM PM PM PM PM PM   
  E  E  E  E  E  E  E  E     E  E  E  E  E  E  E  E    
--------------------------|--------------------------||
-----9--------9--------7--|-----7--------7--------7--||
--------9--------9--------|--------8--------8--------||
-----------9--------9-----|-----------9--------9-----||
--------------------------|--------------------------||
--------------------------|--------------------------||




Lead - right

     W                   W                   W                   W                 
E||-------------------|-------------------|-------------------|-------------------|
B||-------------------|-------------------|-------------------|-------------------|
G||-------------------|-------------------|-------------------|-------------------|
D||-------------------|-------------------|-------------------|-------------------|
A||-------------------|-------------------|-------------------|-------------------|
E||-------------------|-------------------|-------------------|-------------------|


  W                   W                   W                   W                   W                 
-------------------|-------------------|-------------------|-------------------|-------------------|
-------------------|-------------------|-------------------|-------------------|-------------------|
-------------------|-------------------|-------------------|-------------------|-------------------|
-------------------|-------------------|-------------------|-------------------|-------------------|
-------------------|-------------------|-------------------|-------------------|-------------------|
-------------------|-------------------|-------------------|-------------------|-------------------|


      PM  PM  PM  PM  PM  PM PM       PM PM  PM PM PM  PM PM     PM PM PM  PM PM PM  PM     
  E   E   E   E   E   E   E  E     E  E  E   E  E  E   E  E      E  E  E   E  E  E   E  E   
--------------------------------|----------------------------|-----------------------------|
-----10---L------10----------8--|-----8---------8---------8--|------9---------9------------|
---------------------10---------|--------9---------9---------|---------8---------8---------|
-------------10----------10-----|-----------10--------10-----|--10--------10--------10-----|
--------------------------------|----------------------------|-----------------------------|
--------------------------------|----------------------------|-----------------------------|


                          PM  PM  PM  PM  PM  PM PM    PM PM PM  PM PM PM  PM PM  
  W                   E   E   E   E   E   E   E  E     E  E  E   E  E  E   E  E   
-------------------|--------------------------------|----------------------------|
-------------------|-----10----------10----------8--|--L--8---------8---------8--|
-------------------|---------10----------10---------|--------9---------9---------|
-------------------|-------------10----------10-----|-----------10--------10-----|
-------------------|--------------------------------|----------------------------|
-------------------|--------------------------------|----------------------------|


     PM PM  PM PM PM  PM                                                                 
  E  E  E   E  E  E   E  E     W                   W                   W                 
----------------------------|-------------------|-------------------|-------------------|
-----9---------9------------|-------------------|-------------------|-------------------|
--------8---------8---------|-------------------|-------------------|-------------------|
-----------10--------10-----|-------------------|-------------------|-------------------|
----------------------------|-------------------|-------------------|-------------------|
----------------------------|-------------------|-------------------|-------------------|


  W                   W                   W                   W                   W                 
-------------------|-------------------|-------------------|-------------------|-------------------|
-------------------|-------------------|-------------------|-------------------|-------------------|
-------------------|-------------------|-------------------|-------------------|-------------------|
-------------------|-------------------|-------------------|-------------------|-------------------|
-------------------|-------------------|-------------------|-------------------|-------------------|
-------------------|-------------------|-------------------|-------------------|-------------------|


  W                   W                   W                   W                   W                 
-------------------|-------------------|-------------------|-------------------|-------------------|
-------------------|-------------------|-------------------|-------------------|-------------------|
-------------------|-------------------|-------------------|-------------------|-------------------|
-------------------|-------------------|-------------------|-------------------|-------------------|
-------------------|-------------------|-------------------|-------------------|-------------------|
-------------------|-------------------|-------------------|-------------------|-------------------|


      PM  PM  PM  PM  PM  PM PM       PM PM  PM PM PM  PM PM     PM PM PM  PM PM PM  PM     
  E   E   E   E   E   E   E  E     E  E  E   E  E  E   E  E      E  E  E   E  E  E   E  E   
--------------------------------|----------------------------|-----------------------------|
-----10---L------10----------8--|-----8---------8---------8--|------9---------9------------|
---------------------10---------|--------9---------9---------|---------8---------8---------|
-------------10----------10-----|-----------10--------10-----|--10--------10--------10-----|
--------------------------------|----------------------------|-----------------------------|
--------------------------------|----------------------------|-----------------------------|


                          PM  PM  PM  PM  PM  PM PM    PM PM PM  PM PM PM  PM PM  
  W                   E   E   E   E   E   E   E  E     E  E  E   E  E  E   E  E   
-------------------|--------------------------------|----------------------------|
-------------------|-----10----------10----------8--|--L--8---------8---------8--|
-------------------|---------10----------10---------|--------9---------9---------|
-------------------|-------------10----------10-----|-----------10--------10-----|
-------------------|--------------------------------|----------------------------|
-------------------|--------------------------------|----------------------------|


   PM PM PM  PM PM PM  PM                                                                 
   E  E  E   E  E  E   E  E     W                   W                   W                 
-----------------------------|-------------------|-------------------|-------------------|
------9---------9------------|-------------------|-------------------|-------------------|
---------8---------8---------|-------------------|-------------------|-------------------|
--10--------10--------10-----|-------------------|-------------------|-------------------|
-----------------------------|-------------------|-------------------|-------------------|
-----------------------------|-------------------|-------------------|-------------------|


  W                   W                   W                   W                   W                 
-------------------|-------------------|-------------------|-------------------|-------------------|
-------------------|-------------------|-------------------|-------------------|-------------------|
-------------------|-------------------|-------------------|-------------------|-------------------|
-------------------|-------------------|-------------------|-------------------|-------------------|
-------------------|-------------------|-------------------|-------------------|-------------------|
-------------------|-------------------|-------------------|-------------------|-------------------|


  W                   W                   W                   W                   W                 
-------------------|-------------------|-------------------|-------------------|-------------------|
-------------------|-------------------|-------------------|-------------------|-------------------|
-------------------|-------------------|-------------------|-------------------|-------------------|
-------------------|-------------------|-------------------|-------------------|-------------------|
-------------------|-------------------|-------------------|-------------------|-------------------|
-------------------|-------------------|-------------------|-------------------|-------------------|


  W                   W                   W                   W                   W                 
-------------------|-------------------|-------------------|-------------------|-------------------|
-------------------|-------------------|-------------------|-------------------|-------------------|
-------------------|-------------------|-------------------|-------------------|-------------------|
-------------------|-------------------|-------------------|-------------------|-------------------|
-------------------|-------------------|-------------------|-------------------|-------------------|
-------------------|-------------------|-------------------|-------------------|-------------------|


  W                   W                   W                   W                   W                 
-------------------|-------------------|-------------------|-------------------|-------------------|
-------------------|-------------------|-------------------|-------------------|-------------------|
-------------------|-------------------|-------------------|-------------------|-------------------|
-------------------|-------------------|-------------------|-------------------|-------------------|
-------------------|-------------------|-------------------|-------------------|-------------------|
-------------------|-------------------|-------------------|-------------------|-------------------|


  W                   H        Q    E   S   S   
-------------------|-------------------12h-15h-|
-------------------|---------------------------|
-------------------|---------------------------|
-------------------|---------------------------|
-------------------|---------------------------|
-------------------|---------------------------|


                           |-3-|   |---3---|  |---3--|  |-3-|   |---3--|  |--3--|  
   T  T   S  T  S  X   X   E   S   S   S   S  S   S  S  E   S   S   S  S  S  S  S  
--12--------------12h-15p-12-----------------15p-12--------12h-15p-12-------------|
-----13p-12--L-13-------------13p-12h-13p-12--------13----------------13----13----|
-------------------------------------------------------14----------------14----14-|
----------------------------------------------------------------------------------|
----------------------------------------------------------------------------------|
----------------------------------------------------------------------------------|


      |---3--|   |-3-|   |---3--|   |-3-|      |---3--|   |-3-|             |-3-|   
      S   S  S   S   E   S   S  S   S   E      S   S  S   S   E      S   S  S   E   
--14g17p-14-------------17p-14-------------14g17p-14-------------14g17p-14---------|
------------15p-14h-15---------15p-14h-15------------15p-14h-15------------15p-14--|
-----------------------------------------------------------------------------------|
-----------------------------------------------------------------------------------|
-----------------------------------------------------------------------------------|
-----------------------------------------------------------------------------------|


                                                                              W                
               |---3---|  |--|   |---3---|  |--|                 |----3---|                    
   S  S  S  S  S   S   S  S  E   S   S   S  S  E   S  S  E       E    E   E   H        E   E   
--15----------15h-19p-15--------15h-19p-15-------------------|--22p--17-----------------------|
-----17----17------------17----------------17-15--17-20-20b--|-----------20-------------------|
--------16------------------16----------------16-------------|---------------19---------------|
-------------------------------------------------------------|----------------------------14--|
-------------------------------------------------------------|--------------------------------|
-------------------------------------------------------------|--------------------------------|


   E   S  S  E   E   Q      E   E      E   E   E   E    E    E     E   E   
-----------------------------------|----------------------------------14--|
-----------------------------------|------12------14~---L~---Lbr---L------|
--11---------------------------14--|---L------14--------------------------|
------------12--14---L~----12------|--------------------------------------|
------14-14------------------------|--------------------------------------|
-----------------------------------|--------------------------------------|


   E   E   E   E    Q     E   E      H.             E    E    
---L--15--14--15b---L----15--14--|--12~-------------L\-------|
---------------------------------|---------------------------|
---------------------------------|----------------------10h--|
---------------------------------|---------------------------|
---------------------------------|---------------------------|
---------------------------------|---------------------------|


       T       T      T      T                                                       
   S   S   S   S  S   S  S   S Q.       E      S   S  E   S  S  S  S  Q      E   E   
-------------------------------------------|------12--------------------------------|
-------------------------------------------|----------------------------------------|
--11h-16p-10h-16p-9h-16p-7h-12-4~------10--|--14b----15--14-12----------------------|
-------------------------------------------|-------------------14-12-14s~----7--10--|
-------------------------------------------|----------------------------------------|
-------------------------------------------|----------------------------------------|


      E   E   E   E   E    E   E    E      E    E   E   E   E    E   E   E   
---------------------------------------|------------------------------------|
-----------------13--------------------|-------12--13-----------12--13------|
---------12--14------14~---L\-----/14--|---Lb----------14---Lb----------14--|
--12g14--------------------------------|------------------------------------|
---------------------------------------|------------------------------------|
---------------------------------------|------------------------------------|


                                        |---3---|                  |---3---|          
   E    E   E    E   Q       E   E      S   S   S  E   E   E   E   S   S   S  E   E   
-----------14h--15---Lbr----14--15--|--15p-14p-12-----12-----------------------------|
-------12---------------------------|-------------15------13--15--13h-15p-13-12--14--|
---Lb-------------------------------|--------------------------------------------14--|
------------------------------------|------------------------------------------------|
------------------------------------|------------------------------------------------|
------------------------------------|------------------------------------------------|


   E   E   E   E   E   E   S   S  E      E   E   E  E  H           W                  
-------------------------------------|--------------------------|--------------------|
---L--14------12---L--12--12p-10-----|------10------8--L--------|--L\----------------|
---L------14--12---L-------------12--|--11------11--9--L--------|--L\----------------|
-------------------------------------|--------------------------|--------------------|
-------------------------------------|--------------------------|--------------------|
-------------------------------------|--------------------------|--------------------|


  W                   W                   W                   W                   W                 
-------------------|-------------------|-------------------|-------------------|-------------------|
-------------------|-------------------|-------------------|-------------------|-------------------|
-------------------|-------------------|-------------------|-------------------|-------------------|
-------------------|-------------------|-------------------|-------------------|-------------------|
-------------------|-------------------|-------------------|-------------------|-------------------|
-------------------|-------------------|-------------------|-------------------|-------------------|


  W                   W                   W                   W                   W                 
-------------------|-------------------|-------------------|-------------------|-------------------|
-------------------|-------------------|-------------------|-------------------|-------------------|
-------------------|-------------------|-------------------|-------------------|-------------------|
-------------------|-------------------|-------------------|-------------------|-------------------|
-------------------|-------------------|-------------------|-------------------|-------------------|
-------------------|-------------------|-------------------|-------------------|-------------------|


  W                   W                   W                   W                   W                 
-------------------|-------------------|-------------------|-------------------|-------------------|
-------------------|-------------------|-------------------|-------------------|-------------------|
-------------------|-------------------|-------------------|-------------------|-------------------|
-------------------|-------------------|-------------------|-------------------|-------------------|
-------------------|-------------------|-------------------|-------------------|-------------------|
-------------------|-------------------|-------------------|-------------------|-------------------|


  W                   W                   W                   W                   W                 
-------------------|-------------------|-------------------|-------------------|-------------------|
-------------------|-------------------|-------------------|-------------------|-------------------|
-------------------|-------------------|-------------------|-------------------|-------------------|
-------------------|-------------------|-------------------|-------------------|-------------------|
-------------------|-------------------|-------------------|-------------------|-------------------|
-------------------|-------------------|-------------------|-------------------|-------------------|


  W                   W                   W                   W                   W                 
-------------------|-------------------|-------------------|-------------------|-------------------|
-------------------|-------------------|-------------------|-------------------|-------------------|
-------------------|-------------------|-------------------|-------------------|-------------------|
-------------------|-------------------|-------------------|-------------------|-------------------|
-------------------|-------------------|-------------------|-------------------|-------------------|
-------------------|-------------------|-------------------|-------------------|-------------------|


  W                   W                   W                   W                   W                 
-------------------|-------------------|-------------------|-------------------|-------------------|
-------------------|-------------------|-------------------|-------------------|-------------------|
-------------------|-------------------|-------------------|-------------------|-------------------|
-------------------|-------------------|-------------------|-------------------|-------------------|
-------------------|-------------------|-------------------|-------------------|-------------------|
-------------------|-------------------|-------------------|-------------------|-------------------|


  W                   W                   W                   W                   W                 
-------------------|-------------------|-------------------|-------------------|-------------------|
-------------------|-------------------|-------------------|-------------------|-------------------|
-------------------|-------------------|-------------------|-------------------|-------------------|
-------------------|-------------------|-------------------|-------------------|-------------------|
-------------------|-------------------|-------------------|-------------------|-------------------|
-------------------|-------------------|-------------------|-------------------|-------------------|


  W                   W                   W                   W                   W                 
-------------------|-------------------|-------------------|-------------------|-------------------|
-------------------|-------------------|-------------------|-------------------|-------------------|
-------------------|-------------------|-------------------|-------------------|-------------------|
-------------------|-------------------|-------------------|-------------------|-------------------|
-------------------|-------------------|-------------------|-------------------|-------------------|
-------------------|-------------------|-------------------|-------------------|-------------------|


                                                                 PM PM PM PM PM PM PM  
  W                   W                   W                   E  E  E  E  E  E  E  E   
-------------------|-------------------|-------------------|--------------------------|
-------------------|-------------------|-------------------|-----9--------9--------7--|
-------------------|-------------------|-------------------|--------9--------9--------|
-------------------|-------------------|-------------------|-----------9--------9-----|
-------------------|-------------------|-------------------|--------------------------|
-------------------|-------------------|-------------------|--------------------------|


     PM PM PM PM PM PM PM       PM PM PM PM PM PM                         
  E  E  E  E  E  E  E  E     E  E  E  E  E  E  E  E     W                 
--------------------------|--------------------------|-------------------|
-----7--------7--------7--|-----8--------8-----------|-------------------|
--------8--------8--------|--------7--------7--------|-------------------|
-----------9--------9-----|-----------9--------9-----|-------------------|
--------------------------|--------------------------|-------------------|
--------------------------|--------------------------|-------------------|


     PM PM PM PM PM PM PM       PM PM PM PM PM PM PM       PM PM PM PM PM PM     
  E  E  E  E  E  E  E  E     E  E  E  E  E  E  E  E     E  E  E  E  E  E  E  E   
--------------------------|--------------------------|--------------------------|
-----9--------9--------7--|-----7--------7--------7--|-----8--------8-----------|
--------9--------9--------|--------8--------8--------|--------7--------7--------|
-----------9--------9-----|-----------9--------9-----|-----------9--------9-----|
--------------------------|--------------------------|--------------------------|
--------------------------|--------------------------|--------------------------|


                         PM PM PM PM PM PM PM       PM PM PM PM PM PM PM  
  W                   E  E  E  E  E  E  E  E     E  E  E  E  E  E  E  E   
-------------------|--------------------------|--------------------------|
-------------------|-----9--------9--------7--|-----7--------7--------7--|
-------------------|--------9--------9--------|--------8--------8--------|
-------------------|-----------9--------9-----|-----------9--------9-----|
-------------------|--------------------------|--------------------------|
-------------------|--------------------------|--------------------------|


     PM PM PM PM PM PM                              PM PM PM PM PM PM PM  
  E  E  E  E  E  E  E  E     W                   E  E  E  E  E  E  E  E   
--------------------------|-------------------|--------------------------|
-----8--------8-----------|-------------------|-----9--------9--------7--|
--------7--------7--------|-------------------|--------9--------9--------|
-----------9--------9-----|-------------------|-----------9--------9-----|
--------------------------|-------------------|--------------------------|
--------------------------|-------------------|--------------------------|


     PM PM PM PM PM PM PM       PM PM PM PM PM PM                         
  E  E  E  E  E  E  E  E     E  E  E  E  E  E  E  E     W                 
--------------------------|--------------------------|-------------------|
-----7--------7--------7--|-----8--------8-----------|-------------------|
--------8--------8--------|--------7--------7--------|-------------------|
-----------9--------9-----|-----------9--------9-----|-------------------|
--------------------------|--------------------------|-------------------|
--------------------------|--------------------------|-------------------|


     PM PM PM PM PM PM PM       PM PM PM PM PM PM PM       PM PM PM PM PM PM     
  E  E  E  E  E  E  E  E     E  E  E  E  E  E  E  E     E  E  E  E  E  E  E  E   
--------------------------|--------------------------|--------------------------|
-----9--------9--------7--|-----7--------7--------7--|-----8--------8-----------|
--------9--------9--------|--------8--------8--------|--------7--------7--------|
-----------9--------9-----|-----------9--------9-----|-----------9--------9-----|
--------------------------|--------------------------|--------------------------|
--------------------------|--------------------------|--------------------------|


                         PM PM PM PM PM PM PM       PM PM PM PM PM PM PM  
  W                   E  E  E  E  E  E  E  E     E  E  E  E  E  E  E  E   
-------------------|--------------------------|--------------------------|
-------------------|-----9--------9--------7--|-----7--------7--------7--|
-------------------|--------9--------9--------|--------8--------8--------|
-------------------|-----------9--------9-----|-----------9--------9-----|
-------------------|--------------------------|--------------------------|
-------------------|--------------------------|--------------------------|


     PM PM PM PM PM PM                              PM PM PM PM PM PM PM  
  E  E  E  E  E  E  E  E     W                   E  E  E  E  E  E  E  E   
--------------------------|-------------------|--------------------------|
-----8--------8-----------|-------------------|-----9--------9--------7--|
--------7--------7--------|-------------------|--------9--------9--------|
-----------9--------9-----|-------------------|-----------9--------9-----|
--------------------------|-------------------|--------------------------|
--------------------------|-------------------|--------------------------|


     PM PM PM PM PM PM PM   
  E  E  E  E  E  E  E  E    
--------------------------||
-----7--------7--------7--||
--------8--------8--------||
-----------9--------9-----||
--------------------------||
--------------------------||




Duration Legend
---------------
W - whole
H - half
Q - quarter
E - 8th
S - 16th
T - 32nd
X - 64th
. - note dotted
|-n-|  - n-tuplets


Tablature Legend
----------------
L - tied note
x - dead note
g - grace note
(n) - ghost note
> - accentuded note
NH - natural harmonic
AH - artificial harmonic
TH - tapped harmonic
SH - semi harmonic
PH - pitch harmonic
h - hammer on
p - pull off
b - bend
br - bendRelease
pb - preBend
pbr - preBendRelease
brb - bendReleaseBend
\n/ - tremolo bar dip
\n - tremolo bar dive
-/n - tremolo bar Release up
/n\ - tremolo bar inverted dip
/n - tremolo bar return
-\n - tremolo bar Release down
S - shift slide
s - legato slide
/ -  slide into from below or out of upwards
\ -  slide into from above or out of downwards
~ - vibrato
W - wide vibrato
tr - trill
TP - tremolo picking
T - tapping
S - slap
P - pop
< - fade in
^ - brush up
v - brush down
comments
We did not receive enough feedback on this tab! Please rate:
print report bad tab
1 2 3 4 5
3 comments total.
0 reply
ibanez87 wrote on August 21 2008, 10:08 pm

dead on!

0 reply
TexasFury wrote on August 21 2008, 10:13 pm

wait till you see the PowerTab and Guitar Pro versions!

0 reply
TexasFury wrote on November 10 2008, 06:11 pm

This a 100% Certified Texas Tab™. Don't settle for less. Only a song by a Texas band that is tabbed by a Texas Shredder in The Great Republic of Texas can be labeled a Genuine Texas Tab™. SRV approved.

I want to post or [tab]
guest
You may want to rate the tab now too:
select rating
Please do not post tabs as comments. Select "correction" instead!