Oops, an error
Loading. Please wait.

Teasn Pleasn Bass Tab

ver1
ver1

Whole song

Interactive

More versions @911Tabs.com
792 views 1 this week
1 commentread comment
1 2 3 4 5
please rate
Autoscroll
+/-
esc
set tempo
stop
Contributor
Difficulty
intermediate
Hey! There's an official Ultimate Guitar app which is ideal
for learning songs when you're away from computer. Get the app
WARNING: You are trying to view
                                    content from Ultimate-Guitar.com
                                    in an unauthorized application,
                                    which is prohibited.

                                    Please use an official Ultimate
                                    Guitar Tabs application for iPhone,
                                    iPad or Android to access legitimate
                                    chords, guitar, bass, and drum tabs
                                    from Ultimate-Guitar.com database.

                                    Type "ultimate guitar tabs" in Apple
                                    App Store's or Android Market's
                                    search to find the application.
-------------------------------------------------------------------------------
			     TEAS'N PLEAS'N - Dangerous Toys
-------------------------------------------------------------------------------

Tabbed By : Isaias Garcia (TexasFury)

Album: Dangerous Toys

Tuning: Standard


     W                   W                   W                   H        Q    E  E   
G||-------------------|-------------------|-------------------|----------------------|
D||-------------------|-------------------|-------------------|----------------------|
A||-------------------|-------------------|-------------------|----------------------|
E||-------------------|-------------------|-------------------|-------------------5--|


  E  E  E   E  E   E  E   E     E  E  E   E  E  E  E  E     E  E  E   E  E   E  E   E   
-----------------------------|---------------------------|-----------------------------|
-----------------------------|---------------------------|-----------------------------|
--------3h--4----------------|--------3h--4--------------|--------3h--4----------------|
--L--5---------2h--3--2h--3--|--5--5---------2--3--2--5--|--L--5---------2h--3--2h--3--|


  E  E  E   E  E   E  E  E     E  E  E  E  E  E  E  E     E  E  E  E  E  E  E  E   
----------------------------|--------------------------|--------------------------|
----------------------------|--------------------------|--------------------------|
--------3h--4------------5--|--L--5--5--5--5--5--5--5--|--5--5--5--5--5--5--5-----|
--5--5---------2h--3--2-----|--------------------------|-----------------------5--|


  E  E  E   E  E   E  E   E     E  E  E   E  E   E  E  E     E  E  E  E  E  E  E  E   
-----------------------------|----------------------------|--------------------------|
-----------------------------|----------------------------|--------------------------|
--------3h--4----------------|--------3h--4------------5--|--L--5--5--5--5--5--5--5--|
--L--5---------2h--3--2h--3--|--5--5---------2h--3--2-----|--------------------------|


  E  E  E  E  E  E  E  E     E  E  E   E  E   E  E   E     E  E  E   E  E   E  E  E   
--------------------------|-----------------------------|----------------------------|
--------------------------|-----------------------------|----------------------------|
--5--5--5--5--3--3--3-----|--------3h--4----------------|--------3h--4---------------|
-----------------------5--|--L--5---------2h--3--2h--3--|--5--5---------2h--3--2--5--|


  E  E  E   E  E   E  E   E     E  E  E   E  E   E  E  E     E  E  E  E  E  E  E  E   
-----------------------------|----------------------------|--------------------------|
-----------------------------|----------------------------|--------------------------|
--------3h--4----------------|--------3h--4------------7--|--L--7--7--7--7--2--L--3--|
--L--5---------2h--3--2h--3--|--5--5---------2h--3--2-----|--------------------------|


  E  E  E  E  E  E  E  E     E  E  E   E  E   E  E   E     E  E  E   E  E  E  E  E   
--------------------------|-----------------------------|---------------------------|
--------------------------|-----------------------------|---------------------------|
--L--3--3--3--3-----------|--------3h--4----------------|--------3h--4--------------|
-----------------3--L--5--|--L--5---------2h--3--2h--3--|--5--5---------2--3--2--5--|


  E  E  E   E  E   E  E   E     E  E  E   E  E   E  E  E     E  E  E  E  E  E  E  E   
-----------------------------|----------------------------|--------------------------|
-----------------------------|----------------------------|--------------------------|
--------3h--4----------------|--------3h--4------------5--|--L--5--5--5--5--5--5--5--|
--L--5---------2h--3--2h--3--|--5--5---------2h--3--2-----|--------------------------|


  E  E  E  E  E  E  E  E     E  E  E   E  E   E  E   E     E  E  E   E  E   E  E  E   
--------------------------|-----------------------------|----------------------------|
--------------------------|-----------------------------|----------------------------|
--5--5--5--5--5--3--3-----|--------3h--4----------------|--------3h--4------------5--|
-----------------------5--|--L--5---------2h--3--2h--3--|--5--5---------2h--3--2-----|


  E  E  E  E  E  E  E  E     E  E  E  E  E  E  E  E     E  E  E   E  E   E  E   E   
--------------------------|--------------------------|-----------------------------|
--------------------------|--------------------------|-----------------------------|
--L--5--5--5--5--5--5--5--|--5--5--5--8--7--5--3-----|--------3h--4----------------|
--------------------------|-----------------------5--|--L--5---------2h--3--2h--3--|


  E  E  E   E  E   E  E  E     E  E  E   E  E   E  E   E     E  E  E   E  E   E  E  E   
----------------------------|-----------------------------|----------------------------|
----------------------------|-----------------------------|----------------------------|
--------3h--4---------------|--------3h--4----------------|--------3h--4------------7--|
--5--5---------2h--3--2--5--|--L--5---------2h--3--2h--3--|--5--5---------2h--3--2-----|


  E  E  E  E  E  E  E  E     E  E  E  E  E  E  E  E     E  E  E   E  E   E  E   E   
--------------------------|--------------------------|-----------------------------|
--------------------------|--------------------------|-----------------------------|
--L--7--7--7--7--2--L--3--|--L--3--3--3--3-----------|--------3h--4----------------|
--------------------------|-----------------3--L--5--|--L--5---------2h--3--2h--3--|


  E  E  E   E  E  E  E  E     E  E  E   E  E   E  E   E     E  E  E   E  E   E  E  E   
---------------------------|-----------------------------|----------------------------|
---------------------------|-----------------------------|----------------------------|
--------3h--4--------------|--------3h--4----------------|--------3h--4---------------|
--5--5---------2--3--2--5--|--L--5---------2h--3--2h--3--|--5--5---------2h--3--2--5--|


  E  E  E   E  E   E  E   E     E  E  E   E  E  E  E  E     E  E  E   E  E   E  E   E   
-----------------------------|---------------------------|-----------------------------|
-----------------------------|---------------------------|-----------------------------|
--------3h--4----------------|--------3h--4--------------|--------3h--4----------------|
--L--5---------2h--3--2h--3--|--5--5---------2--3--2--5--|--L--5---------2h--3--2h--3--|


  E  E  E   E  E   E  E  E     W                   H        E   E   E   E   
----------------------------|-------------------|--------------------------|
----------------------------|-------------------|--------------------------|
--------3h--4---------------|-------------------|--------------------------|
--5--5---------2h--3--2--0--|-------------------|--------------15---L\--3--|


  E  E  E  E  E  E  E  E     E  E  E  E  E  E  E  E     W                 
--------------------------|--------------------------|-------------------|
--------------------------|--------------------------|-------------------|
--------------------------|--------------------------|-------------------|
--L--3--3--3--3--5--L--3--|--L--3--3--3--3--5--L--0--|-------------------|


  H        E   E   E   E     E  E  E  E  E  E  E  E     E  E  E  E  E  E  E  E   
--------------------------|--------------------------|--------------------------|
--------------------------|--------------------------|--------------------------|
--------------------------|--------------------------|--------------------------|
--------------15---L\--3--|--L--3--3--3--3--5--L--3--|--L--3--3--3--3--5--L--7--|


  E  E  E  E  E  E  E  E     Q    Q    H           W                   W                 
--------------------------|---------------------|-------------------|-------------------|
--------------------------|---------------------|-------------------|-------------------|
--------------------------|---------------------|-------------------|-------------------|
--7--7--7--7--7--7--7--7--|--7------------------|-------------------|-------------------|


       |---3--|                                                |---3--|               
  Q    E   E  E  E  E  E  E     E  E  E  E  E  E  Q       Q    E   E  E  E  E  E  E   
-----------------------------|-------------------------|-----------------------------|
-----------------------------|-------------------------|-----------------------------|
--------------2--5--4--L-----|-------------------------|--------------2--5--4--L-----|
--0----3h--4--------------0--|--3--0--5--0--3--0--5----|--0----3h--4--------------0--|


                                 |---3--|                                         
  E  E  E  E  E  E  Q       Q    E   E  E  E  E  E  E     E  E  E  E  E  E  Q     
-------------------------|-----------------------------|-------------------------|
-------------------------|-----------------------------|-------------------------|
-------------------------|--------------2--5--4--L-----|-------------------------|
--3--0--5--0--3--0--5----|--0----3h--4--------------0--|--3--0--5--0--3--0--5----|


       |---3--|                                                 |---3--|               
  Q    E   E  E  E  E  E  E     E  E  E  E  E  E  Q       E  E  E   E  E  E  E  E  E   
-----------------------------|-------------------------|------------------------------|
-----------------------------|-------------------------|---------------2--5--4--L-----|
--------------2--5--4--L-----|-------------------------|--0--0--3h--4--------------0--|
--0----3h--4--------------0--|--3--0--5--0--3--0--5----|------------------------------|


                                  |---3--|                                         
  E  E  E  E  E  E  Q       E  E  E   E  E  E  E  E  E     E  E  E  E  E  E  Q     
-------------------------|------------------------------|-------------------------|
-------------------------|---------------2--5--4--L-----|-------------------------|
--3--0--5--0--3--0--5----|--0--0--3h--4--------------0--|--3--0--5--0--3--0--5----|
-------------------------|------------------------------|-------------------------|


       |---3--|                                                |---3--|               
  Q    E   E  E  E  E  E  E     E  E  E  E  E  E  Q       Q    E   E  E  E  E  E  E   
-----------------------------|-------------------------|-----------------------------|
-----------------------------|-------------------------|-----------------------------|
--------------2--5--4--L-----|-------------------------|--------------2--5--4--L-----|
--0----3h--4--------------0--|--3--0--5--0--3--0--5----|--0----3h--4--------------0--|


                                 |---3--|                                         
  E  E  E  E  E  E  Q       Q    E   E  E  E  E  Q       E  E  E  E  E  E  E  E   
-------------------------|----------------------------|--------------------------|
-------------------------|----------------------------|--------------------------|
-------------------------|--------------2--4-----5----|--5-----5-----5-----5--5--|
--3--0--5--0--3--0--5----|--0----3h--4--------0-------|-----0-----0-----0--------|


       |---3--|                                                 |--3--|             
  Q    E   E  E  E  E  Q       E  E  E  E  E  E  E  E     E  E  E  E  E  Q    Q     
----------------------------|--------------------------|---------------------------|
----------------------------|--------------------------|---------------------------|
--------------2--4-----5----|--5-----5-----5-----5--5--|--------5--5--5--4----5----|
--0----3h--4--------0-------|-----0-----0-----0--------|--0--0---------------------|


  |--3--|  |--3--|  |---3--|                |--3--|              
  E  E  E  E  E  E  E   E  E  Q       E  E  E  E  E  E  E  Q     
-----------------------------------|----------------------------|
-----------------------------------|----------------------------|
--5--5--5--5--5--5--4h--5--5--5----|--------5--5--5--4-----5----|
-----------------------------------|--0--0--------------0-------|


  |--3--|  |--3--|  |--3--|  |--3--|                               |--3--|  |--3--|   
  E  E  E  E  E  E  E  E  E  E  E  E     Q     Q       E  E  E  E  E  E  E  E  E  E   
--------------------------------------|-------------|--------------------------------|
--------------------------------------|-------------|--------------------------------|
--5--5--5--5--5--5--5--5--5--5--5--5--|--5\---------|--------3--4--------------------|
--------------------------------------|-------------|--5--5--------2--3--3--2--3--3--|


                                      |--3--|  |--3--|   
  E  E  E  E  H           E  E  E  E  E  E  E  E  E  E   
-----------------------|--------------------------------|
-----------------------|--------------------------------|
--------3--4-----------|--------3--4--------------------|
--5--5-----------------|--5--5--------2--3--3--2--3--3--|


                  NH    NH    NH    NH    NH    NH                                   
                  |-----3-----|     |-----3-----|                 |--3--|  |--3--|   
  E  E  E  E      E     E     E     E     E     E     E  E  E  E  E  E  E  E  E  E   
---------------------------------------------<>12--|--------------------------------|
---------------------------<>12--------<>12--------|--------------------------------|
--------3--4/--------<>12--------<>12--------------|--------3--4--------------------|
--5--5---------<>12--------------------------------|--5--5--------2--3--3--2--3--3--|


                                      |--3--|  |--3--|                                      
  E  E  E  E  H           E  E  E  E  E  E  E  E  E  E     E  E  E  E     W                 
-----------------------|--------------------------------|--------------|-------------------|
-----------------------|--------------------------------|--------------|-------------------|
--------3--4-----------|--------3--4--------------------|--------3--4--|-------------------|
--5--5-----------------|--5--5--------2--3--3--2--3--3--|--5--5--------|-------------------|


  E  E  E   E  E   E  E   E     E  E  E   E  E  E  E  E     E  E  E   E  E   E  E   E   
-----------------------------|---------------------------|-----------------------------|
-----------------------------|---------------------------|-----------------------------|
--------3h--4----------------|--------3h--4--------------|--------3h--4----------------|
--5--5---------2h--3--2h--3--|--5--5---------2--3--2--5--|--L--5---------2h--3--2h--3--|


  E  E  E   E  E   E  E  E     E  E  E   E  E   E  E   E     E  E  E   E  E  E  E  E   
----------------------------|-----------------------------|---------------------------|
----------------------------|-----------------------------|---------------------------|
--------3h--4---------------|--------3h--4----------------|--------3h--4--------------|
--5--5---------2h--3--2--5--|--L--5---------2h--3--2h--3--|--5--5---------2--3--2--5--|


  E  E  E   E  E   E  E   E     E  E  E   E  E   E  E  E     E  E  E   E  E   E  E   E   
-----------------------------|----------------------------|-----------------------------|
-----------------------------|----------------------------|-----------------------------|
--------3h--4----------------|--------3h--4---------------|--------3h--4----------------|
--L--5---------2h--3--2h--3--|--5--5---------2h--3--2--5--|--L--5---------2h--3--2h--3--|


  E  E  E   E  E  E  E  E     E  E  E   E  E   E  E   E     E  E  E   E  E   E  E  E   
---------------------------|-----------------------------|----------------------------|
---------------------------|-----------------------------|----------------------------|
--------3h--4--------------|--------3h--4----------------|--------3h--4---------------|
--5--5---------2--3--2--5--|--L--5---------2h--3--2h--3--|--5--5---------2h--3--2--5--|


  E  E  E   E  E   E  E   E     E  E  E   E  E  E  E  E     E  E  E   E  E   E  E   E   
-----------------------------|---------------------------|-----------------------------|
-----------------------------|---------------------------|-----------------------------|
--------3h--4----------------|--------3h--4--------------|--------3h--4----------------|
--L--5---------2h--3--2h--3--|--5--5---------2--3--2--5--|--L--5---------2h--3--2h--3--|


  E  E  E   E  E   E  E  E     E  E  Q    Q    E  E     E  E  Q    Q    E  E   
----------------------------|------------------------|------------------------|
----------------------------|------------------------|------------------------|
--------3h--4---------------|------------------------|------------------------|
--5--5---------2h--3--2--5--|--L--5---------------5--|--L--5---------------5--|


                                             
  E  E  Q    H           W                   W                                         
----------------------|-------------------|-------------------------------------------|
----------------------|-------------------|-------------------------------------------|
----------------------|-------------------|-------------------------------------------|
--L--5----------------|--5----------------|--L----------------------------------------|



  H        Q    Q      
---------------------||
---------------------||
---------------------||
--L--------5---------||




Duration Legend
---------------
W - whole
H - half
Q - quarter
E - 8th
S - 16th
T - 32nd
X - 64th
. - note dotted
|-n-|  - n-tuplets


Tablature Legend
----------------
L - tied note
x - dead note
g - grace note
(n) - ghost note
> - accentuded note
NH - natural harmonic
AH - artificial harmonic
TH - tapped harmonic
SH - semi harmonic
PH - pitch harmonic
h - hammer on
p - pull off
b - bend
br - bendRelease
pb - preBend
pbr - preBendRelease
brb - bendReleaseBend
\n/ - tremolo bar dip
\n - tremolo bar dive
-/n - tremolo bar Release up
/n\ - tremolo bar inverted dip
/n - tremolo bar return
-\n - tremolo bar Release down
S - shift slide
s - legato slide
/ -  slide into from below or out of upwards
\ -  slide into from above or out of downwards
~ - vibrato
W - wide vibrato
tr - trill
TP - tremolo picking
T - tapping
S - slap
P - pop
< - fade in
^ - brush up
v - brush down
comments
We did not receive enough feedback on this tab! Please rate:
print report bad tab
1 2 3 4 5
1 comment total.
0 reply
TexasFury wrote on November 10 2008, 06:12 pm

This a 100% Certified Texas Tab™. Don't settle for less. Only a song by a Texas band that is tabbed by a Texas Shredder in The Great Republic of Texas can be labeled a Genuine Texas Tab™. SRV approved.

I want to post or [tab]
guest
You may want to rate the tab now too:
select rating
Please do not post tabs as comments. Select "correction" instead!