Oops, an error
Loading. Please wait.

Teasn Pleasn Tab

ver1
ver1

Whole song

More versions @911Tabs.com
1,918 views 6 this week
1 commentread comment
1 2 3 4 5
excellent!
x 1
Autoscroll
+/-
esc
set tempo
stop
Contributor
Difficulty
Tabbers playing skills
intermediate
advanced ++
WARNING: You are trying to view
                                    content from Ultimate-Guitar.com
                                    in an unauthorized application,
                                    which is prohibited.

                                    Please use an official Ultimate
                                    Guitar Tabs application for iPhone,
                                    iPad or Android to access legitimate
                                    chords, guitar, bass, and drum tabs
                                    from Ultimate-Guitar.com database.

                                    Type "ultimate guitar tabs" in Apple
                                    App Store's or Android Market's
                                    search to find the application.
-------------------------------------------------------------------------------
                             TEAS'N PLEAS'N - Dangerous Toys
-------------------------------------------------------------------------------

Tabbed by: Isaias Garcia

Album: Dangerous Toys

Tuning: Standard


Rhythm Guitar - left


     E  E  E   E  E   E  E   E     E  E  E   E  E  E  E  E     E  E  E   E  E   E  E   E   
E||-----------------------------|---------------------------|-----------------------------|
B||-----------------------------|---------------------------|-----------------------------|
G||-----------------------------|---------------------------|-----------------------------|
D||--2--------------------------|--2---------------------2--|--L--------------------------|
A||--0--0--3h--4----------------|--0--0--3h--4-----------0--|--L--0--3h--4----------------|
E||---------------2h--3--2h--3--|---------------2--3--2-----|---------------2h--3--2h--3--|


  E  E  E   E  E  E  E  E     E  E  E   E  E   E  E   E     E  E  E   E  E  E  E  E   
---------------------------|-----------------------------|---------------------------|
---------------------------|-----------------------------|---------------------------|
---------------------------|-----------------------------|---------------------------|
--2---------------------2--|--L--------------------------|--2---------------------2--|
--0--0--3h--4-----------0--|--L--0--3h--4----------------|--0--0--3h--4-----------0--|
---------------2--3--2-----|---------------2h--3--2h--3--|---------------2--3--2-----|


  E  E  E   E  E   E  E   E     E  E  E   E  E  E  E  E     Q    E  E  Q    E   E   
-----------------------------|---------------------------|-------------------------|
-----------------------------|---------------------------|-------------------------|
-----------------------------|---------------------------|----------7--L-------10--|
--L--------------------------|--2---------------------7--|--L-------5--L--------8--|
--L--0--3h--4----------------|--0--0--3h--4-----------5--|--L----------------------|
---------------2h--3--2h--3--|---------------2--3--------|-------------------------|


   Q    E   E   Q    E  E     E  E  E   E  E   E  E   E     E  E  E   E  E  E  E  E   
---------------------------|-----------------------------|---------------------------|
---------------------------|-----------------------------|---------------------------|
---L--------9---L----------|-----------------------------|---------------------------|
---L-------10---L-------2--|--L--------------------------|--2---------------------7--|
------------------------0--|--L--0--3h--4----------------|--0--0--3h--4-----------5--|
---------------------------|---------------2h--3--2h--3--|---------------2--3--2-----|


                                      C/D                                           
  Q    E  E  Q    E   E      Q    E   E   Q    E  E     E  E  E   E  E   E  E   E   
-------------------------|---------------------------|-----------------------------|
-------------------------|---------------------------|-----------------------------|
----------7--L-------10--|---L--------9---L----------|-----------------------------|
--L-------5--L--------8--|---L-------10---L-------2--|--L--------------------------|
--L----------------------|------------------------0--|--L--0--3h--4----------------|
-------------------------|---------------------------|---------------2h--3--2h--3--|


  E  E  E   E  E  E  E  E     E  E  E   E  E   E  E   E     E  E  E   E  E  E  E  E   
---------------------------|-----------------------------|---------------------------|
---------------------------|-----------------------------|---------------------------|
---------------------------|-----------------------------|------------------------4--|
--2---------------------2--|--L--------------------------|--2---------------------2--|
--0--0--3h--4-----------0--|--L--0--3h--4----------------|--0--0--3h--4--------------|
---------------2--3--2-----|---------------2h--3--2h--3--|---------------2--3--------|


  E  E  E  E  E  E  E  E     E  E  E  E  E  E  E  E     E  E  E   E  E   E  E   E   
--------------------------|--------------------------|-----------------------------|
--------------------------|--------------------------|-----------------------------|
--L--4--4--4--4-----------|--------------------------|-----------------------------|
--L--2--2--2--2--4-----5--|--L--5--5--5--5--------2--|--L--------------------------|
-----------------2-----3--|--L--3--3--3--3--5-----0--|--L--0--3h--4----------------|
--------------------------|-----------------3--------|---------------2h--3--2h--3--|


  E  E  E   E  E  E  E  E     E  E  E   E  E   E  E   E     E  E  E   E  E  E  E  E   
---------------------------|-----------------------------|---------------------------|
---------------------------|-----------------------------|---------------------------|
---------------------------|-----------------------------|---------------------------|
--2---------------------2--|--L--------------------------|--2---------------------7--|
--0--0--3h--4-----------0--|--L--0--3h--4----------------|--0--0--3h--4-----------5--|
---------------2--3--2-----|---------------2h--3--2h--3--|---------------2--3--------|


  Q    E  E  Q    E   E      Q    E   E   Q    E  E     E  E  E   E  E   E  E   E   
-------------------------|---------------------------|-----------------------------|
-------------------------|---------------------------|-----------------------------|
----------7--L-------10--|---L--------9---L----------|-----------------------------|
--L-------5--L--------8--|---L-------10---L-------2--|--L--------------------------|
--L----------------------|------------------------0--|--L--0--3h--4----------------|
-------------------------|---------------------------|---------------2h--3--2h--3--|


  E  E  E   E  E  E  E  E     Q    E  E  Q    E   E      Q    E   E   Q    E  E   
---------------------------|-------------------------|---------------------------|
---------------------------|-------------------------|---------------------------|
---------------------------|----------7--L-------10--|---L--------9---L----------|
--2---------------------7--|--L-------5--L--------8--|---L-------10---L-------2--|
--0--0--3h--4-----------5--|--L----------------------|------------------------0--|
---------------2--3--2-----|-------------------------|---------------------------|


  E  E  E   E  E   E  E   E     E  E  E   E  E  E  E  E     E  E  E   E  E   E  E   E   
-----------------------------|---------------------------|-----------------------------|
-----------------------------|---------------------------|-----------------------------|
-----------------------------|---------------------------|-----------------------------|
--L--------------------------|--2---------------------2--|--L--------------------------|
--L--0--3h--4----------------|--0--0--3h--4-----------0--|--L--0--3h--4----------------|
---------------2h--3--2h--3--|---------------2--3--2-----|---------------2h--3--2h--3--|


  E  E  E   E  E  E  E  E     E  E  E  E  E  E  E  E     E  E  E  E  E  E  E  E   
---------------------------|--------------------------|--------------------------|
---------------------------|--------------------------|--------------------------|
------------------------4--|--L--4--4--4--4-----------|--------------------------|
--2---------------------2--|--L--2--2--2--2--4-----5--|--L--5--5--5--5--------2--|
--0--0--3h--4--------------|-----------------2-----3--|--L--3--3--3--3--5-----0--|
---------------2--3--------|--------------------------|-----------------3--------|


  E  E  E   E  E   E  E   E     E  E  E   E  E  E  E  E     E  E  E   E  E   E  E   E   
-----------------------------|---------------------------|-----------------------------|
-----------------------------|---------------------------|-----------------------------|
-----------------------------|---------------------------|-----------------------------|
--L--------------------------|--2---------------------2--|--L--------------------------|
--L--0--3h--4----------------|--0--0--3h--4-----------0--|--L--0--3h--4----------------|
---------------2h--3--2h--3--|---------------2--3--2-----|---------------2h--3--2h--3--|


  E  E  E   E  E  E  E  E     E  E  E   E  E   E  E   E     E  E  E   E  E  E  E  E   
---------------------------|-----------------------------|---------------------------|
---------------------------|-----------------------------|---------------------------|
---------------------------|-----------------------------|---------------------------|
--2---------------------2--|--L--------------------------|--2---------------------2--|
--0--0--3h--4-----------0--|--L--0--3h--4----------------|--0--0--3h--4-----------0--|
---------------2--3--2-----|---------------2h--3--2h--3--|---------------2--3--------|


                                                               PM    PM    PM    PM  
  E  E  E   E  E   E  E   E     E  E  E   E  E  E  E  E     E  E  E  E  E  E  E  E   
-----------------------------|---------------------------|--------------------------|
-----------------------------|---------------------------|--------------------------|
-----------------------------|---------------------------|--------------------------|
--L--------------------------|--2------------------------|--------------------------|
--L--0--3h--4----------------|--0--0--3h--4-----------2--|--L-----4-----5-----4-----|
---------------2h--3--2h--3--|---------------2--3-----0--|--L--0-----0-----0-----0--|


  PM PM    PM                     PM PM PM PM                PM PM PM PM           
  E  E  E  E  E   E   E  E     E  E  E  E  E  E  E  E     E  E  E  E  E  E  E  E   
----------------------------|--------------------------|--------------------------|
----------------------------|--------------------------|--------------------------|
----------------------------|--------------------------|--------------------------|
----------------------------|--------------------------|--------------------------|
--------4-----5p--4p--2--5--|--L--------------7-----5--|--L--------------7-----2--|
--0--0-----0-------------3--|--L--3--3--3--3--5-----3--|--L--3--3--3--3--5-----0--|


     PM    PM    PM    PM    PM PM    PM                     PM PM PM PM           
  E  E  E  E  E  E  E  E     E  E  E  E  E   E   E  E     E  E  E  E  E  E  E  E   
--------------------------|----------------------------|--------------------------|
--------------------------|----------------------------|--------------------------|
--------------------------|----------------------------|--------------------------|
--------------------------|----------------------------|--------------------------|
--L-----4-----5-----4-----|--------4-----5p--4p--2--5--|--L--------------7-----5--|
--L--0-----0-----0-----0--|--0--0-----0-------------3--|--L--3--3--3--3--5-----3--|


     PM PM PM PM                PM PM PM PM PM PM PM                                            
  E  E  E  E  E  E  E  E     E  E  E  E  E  E  E  E     Q    Q    H           W                 
--------------------------|--------------------------|---------------------|-------------------|
--------------------------|--------------------------|---------------------|-------------------|
--------------------------|--------------------------|---------------------|-------------------|
--------------------------|--------------------------|---------------------|-------------------|
--L--------------7-----9--|--L-----------------------|--9------------------|-------------------|
--L--3--3--3--3--5-----7--|--L--7--7--7--7--7--7--7--|--7------------------|-------------------|


                                                      PM         PM       
                           |---3--|                                       
  W                   Q    E   E  E  E  E  Q       E  E  Q    E  E  Q     
-------------------|----------------------------|------------------------|
-------------------|----------------------------|------------------------|
-------------------|----------------------------|------------------------|
-------------------|----------------------------|------------------------|
-------------------|--------------2--5--4--L----|------------------------|
-------------------|--0----3h--4----------------|--3--0--5----3--0--5----|


                                  PM         PM                                    
       |---3--|                                              |---3--|              
  Q    E   E  E  E  E  Q       E  E  Q    E  E  Q       Q    E   E  E  E  E  Q     
----------------------------|------------------------|----------------------------|
----------------------------|------------------------|----------------------------|
----------------------------|------------------------|----------------------------|
----------------------------|------------------------|----------------------------|
--------------2--5--4--L----|------------------------|--------------2--5--4--L----|
--0----3h--4----------------|--3--0--5----3--0--5----|--0----3h--4----------------|


     PM         PM                                         PM         PM       
                                |---3--|                                       
  E  E  Q    E  E  Q       Q    E   E  E  E  E  Q       E  E  Q    E  E  Q     
------------------------|----------------------------|------------------------|
------------------------|----------------------------|------------------------|
------------------------|----------------------------|------------------------|
------------------------|----------------------------|------------------------|
------------------------|--------------2--5--4--L----|------------------------|
--3--0--5----3--0--5----|--0----3h--4----------------|--3--0--5----3--0--5----|


                                  PM         PM                                    
       |---3--|                                              |---3--|              
  Q    E   E  E  E  E  Q       E  E  Q    E  E  Q       Q    E   E  E  E  E  Q     
----------------------------|------------------------|----------------------------|
----------------------------|------------------------|----------------------------|
----------------------------|------------------------|----------------------------|
--------------2--5--4--L----|------------------------|--------------2--5--4--L----|
--0----3h--4----------------|--3--0--5----3--0--5----|--0----3h--4----------------|
----------------------------|------------------------|----------------------------|


     PM         PM                                         PM         PM       
                                |---3--|                                       
  E  E  Q    E  E  Q       Q    E   E  E  E  E  Q       E  E  Q    E  E  Q     
------------------------|----------------------------|------------------------|
------------------------|----------------------------|------------------------|
------------------------|----------------------------|------------------------|
------------------------|----------------------------|------------------------|
--3--0--5----3--0--5----|--------------2--5--4--L----|------------------------|
------------------------|--0----3h--4----------------|--3--0--5----3--0--5----|


                                  PM         PM                                               
       |---3--|                                                                               
  Q    E   E  E  E  E  Q       E  E  Q    E  E  Q       W                   W                 
----------------------------|------------------------|-------------------|-------------------|
----------------------------|------------------------|-------------------|-------------------|
----------------------------|------------------------|-------------------|-------------------|
----------------------------|------------------------|-------------------|-------------------|
--------------2--5--4--L----|------------------------|--2----------------|--L----------------|
--0----3h--4----------------|--3--0--5----3--0--5----|--0----------------|--L----------------|


  W                   W                   W                   W                   W                 
-------------------|-------------------|-------------------|-------------------|-------------------|
-------------------|-------------------|-------------------|-------------------|-------------------|
-------------------|-------------------|-------------------|-------------------|-------------------|
-------------------|-------------------|-------------------|-------------------|-------------------|
-------------------|-------------------|-------------------|-------------------|-------------------|
-------------------|-------------------|-------------------|-------------------|-------------------|


  |--3--|  |--3--|  |--3--|  |--3--|                               |--3--|   |--3--|   
  E  E  E  E  E  E  E  E  E  E  E  E     Q     Q       E  E  E  E  E  E  E   E  E  E   
--------------------------------------|-------------|---------------------------------|
--------------------------------------|-------------|---------------------------------|
--7--7--7--7--7--7--7--7--7--7--7--7--|--7\---------|---------------------------------|
--7--7--7--7--7--7--7--7--7--7--7--7--|--7\---------|--2------------------------------|
--5--5--5--5--5--5--5--5--5--5--5--5--|--5\---------|--0--0--3--4---------------------|
--------------------------------------|-------------|--------------2--3--3~--2--3--3--|


                                      |--3--|   |--3--|                           
  E  E  E  E  H           E  E  E  E  E  E  E   E  E  E     E  E  E  E  H         
-----------------------|---------------------------------|-----------------------|
-----------------------|---------------------------------|-----------------------|
-----------------------|---------------------------------|-----------------------|
--2--------------------|--2------------------------------|--2--------------------|
--0--0--3--4-----------|--0--0--3--4---------------------|--0--0--3--4-----------|
-----------------------|--------------2--3--3~--2--3--3--|-----------------------|


                                                \5                                          
              |--3--|   |--3--|                                         |--3--|   |--3--|   
  E  E  E  E  E  E  E   E  E  E     E  E  E  E  H           E  E  E  E  E  E  E   E  E  E   
---------------------------------|-----------------------|---------------------------------|
---------------------------------|-----------------------|---------------------------------|
---------------------------------|-----------------------|---------------------------------|
--2------------------------------|--2--------------------|--2------------------------------|
--0--0--3--4---------------------|--0--0--3--4-----------|--0--0--3--4---------------------|
--------------2--3--3~--2--3--3--|--------------0--------|--------------2--3--3~--2--3--3--|


  E  E  E  E     W                   E  E  E   E  E   E  E   E     E  E  E   E  E  E  E  E   
--------------|-------------------|-----------------------------|---------------------------|
--------------|-------------------|-----------------------------|---------------------------|
--------------|-------------------|-----------------------------|---------------------------|
--2-----------|-------------------|--2--2-----------------------|--2--2------------------2--|
--0--0--3--4--|-------------------|--0--0--3h--4----------------|--0--0--3h--4-----------0--|
--------------|-------------------|---------------2h--3--2h--3--|---------------2--3--2-----|


  E  E  E   E  E   E  E   E     E  E  E   E  E  E  E  E     E  E  E   E  E   E  E   E   
-----------------------------|---------------------------|-----------------------------|
-----------------------------|---------------------------|-----------------------------|
-----------------------------|---------------------------|-----------------------------|
--L--2-----------------------|--2--2------------------2--|--L--2-----------------------|
--L--0--3h--4----------------|--0--0--3h--4-----------0--|--L--0--3h--4----------------|
---------------2h--3--2h--3--|---------------2--3--2-----|---------------2h--3--2h--3--|


  E  E  E   E  E  E  E  E     E  E  E   E  E   E  E   E     E  E  E   E  E  E  E  E   
---------------------------|-----------------------------|---------------------------|
---------------------------|-----------------------------|---------------------------|
---------------------------|-----------------------------|---------------------------|
--2--2------------------2--|--L--2-----------------------|--2--2------------------2--|
--0--0--3h--4-----------0--|--L--0--3h--4----------------|--0--0--3h--4-----------0--|
---------------2--3--2-----|---------------2h--3--2h--3--|---------------2--3--2-----|


  E  E  E   E  E   E  E   E     E  E  E   E  E  E  E  E     E  E  E   E  E   E  E   E   
-----------------------------|---------------------------|-----------------------------|
-----------------------------|---------------------------|-----------------------------|
-----------------------------|---------------------------|-----------------------------|
--L--2-----------------------|--2--2------------------2--|--L--2-----------------------|
--L--0--3h--4----------------|--0--0--3h--4-----------0--|--L--0--3h--4----------------|
---------------2h--3--2h--3--|---------------2--3--2-----|---------------2h--3--2h--3--|


  E  E  E   E  E  E  E  E     E  E  E   E  E   E  E   E     E  E  E   E  E  E  E  E   
---------------------------|-----------------------------|---------------------------|
---------------------------|-----------------------------|---------------------------|
---------------------------|-----------------------------|---------------------------|
--2--2------------------2--|--L--2-----------------------|--2--2------------------2--|
--0--0--3h--4-----------0--|--L--0--3h--4----------------|--0--0--3h--4-----------0--|
---------------2--3--2-----|---------------2h--3--2h--3--|---------------2--3--2-----|


  E  E  E   E  E   E  E   E     E  E  E   E  E  E  E  E     E  E  E   E  E   E  E  E   
-----------------------------|---------------------------|----------------------------|
-----------------------------|---------------------------|----------------------------|
-----------------------------|---------------------------|----------------------------|
--L--2-----------------------|--2--2------------------2--|--L--2-------------------2--|
--L--0--3h--4----------------|--0--0--3h--4-----------0--|--L--0--3h--4------------0--|
---------------2h--3--2h--3--|---------------2--3--2-----|---------------2h--3--2-----|


  E  E  E   E  E  E  E  E     E  E  Q    H           W                 
---------------------------|----------------------|-------------------|
---------------------------|----------------------|-------------------|
---------------------------|----------------------|--2----------------|
--L--2------------------2--|--L--2----------------|--2----------------|
--L--0--3h--4-----------0--|--L--0----------------|--0----------------|
---------------2--3--2-----|----------------------|-------------------|


                         
  W                                           H        Q    Q      
-------------------------------------------|---------------------||
-------------------------------------------|---------------------||
--L----------------------------------------|--L--------2---------||
--L----------------------------------------|--L--------2---------||
--L----------------------------------------|--L--------0---------||
-------------------------------------------|---------------------||



Rhythm Guitar - right


     E  E  E   E  E   E  E   E     E  E  E   E  E  E  E  E     E  E  E   E  E   E  E   E   
E||-----------------------------|---------------------------|-----------------------------|
B||-----------------------------|---------------------------|-----------------------------|
G||-----------------------------|---------------------------|-----------------------------|
D||--2--------------------------|--2---------------------2--|--L--------------------------|
A||--0--0--3h--4----------------|--0--0--3h--4-----------0--|--L--0--3h--4----------------|
E||---------------2h--3--2h--3--|---------------2--3--2-----|---------------2h--3--2h--3--|


  E  E  E   E  E  E  E  E     E  E  E   E  E   E  E   E     E  E  E   E  E  E  E  E   
---------------------------|-----------------------------|---------------------------|
---------------------------|-----------------------------|---------------------------|
---------------------------|-----------------------------|---------------------------|
--2---------------------2--|--L--------------------------|--2---------------------2--|
--0--0--3h--4-----------0--|--L--0--3h--4----------------|--0--0--3h--4-----------0--|
---------------2--3--2-----|---------------2h--3--2h--3--|---------------2--3--2-----|


  E  E  E   E  E   E  E   E     E  E  E   E  E  E  E  E     Q    E  E  Q    E   E   
-----------------------------|---------------------------|-------------------------|
-----------------------------|---------------------------|-------------------------|
-----------------------------|---------------------------|----------7--L-------10--|
--L--------------------------|--2---------------------7--|--L-------5--L--------8--|
--L--0--3h--4----------------|--0--0--3h--4-----------5--|--L----------------------|
---------------2h--3--2h--3--|---------------2--3--------|-------------------------|


   Q    E   E   Q    E  E     E  E  E   E  E   E  E   E     E  E  E   E  E  E  E  E   
---------------------------|-----------------------------|---------------------------|
---------------------------|-----------------------------|---------------------------|
---L--------9---L----------|-----------------------------|---------------------------|
---L-------10---L-------2--|--L--------------------------|--2---------------------7--|
------------------------0--|--L--0--3h--4----------------|--0--0--3h--4-----------5--|
---------------------------|---------------2h--3--2h--3--|---------------2--3--2-----|


  Q    E  E  Q    E   E      Q    E   E   Q    E  E     E  E  E   E  E   E  E   E   
-------------------------|---------------------------|-----------------------------|
-------------------------|---------------------------|-----------------------------|
----------7--L-------10--|---L--------9---L----------|-----------------------------|
--L-------5--L--------8--|---L-------10---L-------2--|--L--------------------------|
--L----------------------|------------------------0--|--L--0--3h--4----------------|
-------------------------|---------------------------|---------------2h--3--2h--3--|


  E  E  E   E  E  E  E  E     E  E  E   E  E   E  E   E     E  E  E   E  E  E  E  E   
---------------------------|-----------------------------|---------------------------|
---------------------------|-----------------------------|---------------------------|
---------------------------|-----------------------------|------------------------4--|
--2---------------------2--|--L--------------------------|--2---------------------2--|
--0--0--3h--4-----------0--|--L--0--3h--4----------------|--0--0--3h--4--------------|
---------------2--3--2-----|---------------2h--3--2h--3--|---------------2--3--------|


  E  E  E  E  E  E  E  E     E  E  E  E  E  E  E  E     E  E  E   E  E   E  E   E   
--------------------------|--------------------------|-----------------------------|
--------------------------|--------------------------|-----------------------------|
--L--4--4--4--4-----------|--------------------------|-----------------------------|
--L--2--2--2--2--4-----5--|--L--5--5--5--5--------2--|--L--------------------------|
-----------------2-----3--|--L--3--3--3--3--5-----0--|--L--0--3h--4----------------|
--------------------------|-----------------3--------|---------------2h--3--2h--3--|


  E  E  E   E  E  E  E  E     E  E  E   E  E   E  E   E     E  E  E   E  E  E  E  E   
---------------------------|-----------------------------|---------------------------|
---------------------------|-----------------------------|---------------------------|
---------------------------|-----------------------------|---------------------------|
--2---------------------2--|--L--------------------------|--2---------------------7--|
--0--0--3h--4-----------0--|--L--0--3h--4----------------|--0--0--3h--4-----------5--|
---------------2--3--2-----|---------------2h--3--2h--3--|---------------2--3--------|


  Q    E  E  Q    E   E      Q    E   E   Q    E  E     E  E  E   E  E   E  E   E   
-------------------------|---------------------------|-----------------------------|
-------------------------|---------------------------|-----------------------------|
----------7--L-------10--|---L--------9---L----------|-----------------------------|
--L-------5--L--------8--|---L-------10---L-------2--|--L--------------------------|
--L----------------------|------------------------0--|--L--0--3h--4----------------|
-------------------------|---------------------------|---------------2h--3--2h--3--|


  E  E  E   E  E  E  E  E     Q    E  E  Q    E   E      Q    E   E   Q    E  E   
---------------------------|-------------------------|---------------------------|
---------------------------|-------------------------|---------------------------|
---------------------------|----------7--L-------10--|---L--------9---L----------|
--2---------------------7--|--L-------5--L--------8--|---L-------10---L-------2--|
--0--0--3h--4-----------5--|--L----------------------|------------------------0--|
---------------2--3--2-----|-------------------------|---------------------------|


  E  E  E   E  E   E  E   E     E  E  E   E  E  E  E  E     E  E  E   E  E   E  E   E   
-----------------------------|---------------------------|-----------------------------|
-----------------------------|---------------------------|-----------------------------|
-----------------------------|---------------------------|-----------------------------|
--L--------------------------|--2---------------------2--|--L--------------------------|
--L--0--3h--4----------------|--0--0--3h--4-----------0--|--L--0--3h--4----------------|
---------------2h--3--2h--3--|---------------2--3--2-----|---------------2h--3--2h--3--|


  E  E  E   E  E  E  E  E     E  E  E  E  E  E  E  E     E  E  E  E  E  E  E  E   
---------------------------|--------------------------|--------------------------|
---------------------------|--------------------------|--------------------------|
------------------------4--|--L--4--4--4--4-----------|--------------------------|
--2---------------------2--|--L--2--2--2--2--4-----5--|--L--5--5--5--5--------2--|
--0--0--3h--4--------------|-----------------2-----3--|--L--3--3--3--3--5-----0--|
---------------2--3--------|--------------------------|-----------------3--------|


  E  E  E   E  E   E  E   E     E  E  E   E  E  E  E  E     E  E  E   E  E   E  E   E   
-----------------------------|---------------------------|-----------------------------|
-----------------------------|---------------------------|-----------------------------|
-----------------------------|---------------------------|-----------------------------|
--L--------------------------|--2---------------------2--|--L--------------------------|
--L--0--3h--4----------------|--0--0--3h--4-----------0--|--L--0--3h--4----------------|
---------------2h--3--2h--3--|---------------2--3--2-----|---------------2h--3--2h--3--|


  E  E  E   E  E  E  E  E     E  E  E   E  E   E  E   E     E  E  E   E  E  E  E  E   
---------------------------|-----------------------------|---------------------------|
---------------------------|-----------------------------|---------------------------|
---------------------------|-----------------------------|---------------------------|
--2---------------------2--|--L--------------------------|--2---------------------2--|
--0--0--3h--4-----------0--|--L--0--3h--4----------------|--0--0--3h--4-----------0--|
---------------2--3--2-----|---------------2h--3--2h--3--|---------------2--3--------|


                                                               PM    PM    PM    PM  
  E  E  E   E  E   E  E   E     E  E  E   E  E  E  E  E     E  E  E  E  E  E  E  E   
-----------------------------|---------------------------|--------------------------|
-----------------------------|---------------------------|--------------------------|
-----------------------------|---------------------------|--------------------------|
--L--------------------------|--2------------------------|--------------------------|
--L--0--3h--4----------------|--0--0--3h--4-----------2--|--L-----4-----5-----4-----|
---------------2h--3--2h--3--|---------------2--3-----0--|--L--0-----0-----0-----0--|


  PM PM    PM                     PM PM PM PM                PM PM PM PM           
  E  E  E  E  E   E   E  E     E  E  E  E  E  E  E  E     E  E  E  E  E  E  E  E   
----------------------------|--------------------------|--------------------------|
----------------------------|--------------------------|--------------------------|
----------------------------|--------------------------|--------------------------|
----------------------------|--------------------------|--------------------------|
--------4-----5p--4p--2--5--|--L--------------7-----5--|--L--------------7-----2--|
--0--0-----0-------------3--|--L--3--3--3--3--5-----3--|--L--3--3--3--3--5-----0--|


     PM    PM    PM    PM    PM PM    PM                     PM PM PM PM           
  E  E  E  E  E  E  E  E     E  E  E  E  E   E   E  E     E  E  E  E  E  E  E  E   
--------------------------|----------------------------|--------------------------|
--------------------------|----------------------------|--------------------------|
--------------------------|----------------------------|--------------------------|
--------------------------|----------------------------|--------------------------|
--L-----4-----5-----4-----|--------4-----5p--4p--2--5--|--L--------------7-----5--|
--L--0-----0-----0-----0--|--0--0-----0-------------3--|--L--3--3--3--3--5-----3--|


     PM PM PM PM                PM PM PM PM PM PM PM                                            
  E  E  E  E  E  E  E  E     E  E  E  E  E  E  E  E     Q    Q    H           W                 
--------------------------|--------------------------|---------------------|-------------------|
--------------------------|--------------------------|---------------------|-------------------|
--------------------------|--------------------------|---------------------|-------------------|
--------------------------|--------------------------|---------------------|-------------------|
--L--------------7-----9--|--L-----------------------|--9------------------|-------------------|
--L--3--3--3--3--5-----7--|--L--7--7--7--7--7--7--7--|--7------------------|-------------------|


                                                      PM         PM       
                           |---3--|                                       
  W                   Q    E   E  E  E  E  Q       E  E  Q    E  E  Q     
-------------------|----------------------------|------------------------|
-------------------|----------------------------|------------------------|
-------------------|----------------------------|------------------------|
-------------------|----------------------------|------------------------|
-------------------|--------------2--5--4--L----|------------------------|
-------------------|--0----3h--4----------------|--3--0--5----3--0--5----|


                                  PM         PM                                    
       |---3--|                                              |---3--|              
  Q    E   E  E  E  E  Q       E  E  Q    E  E  Q       Q    E   E  E  E  E  Q     
----------------------------|------------------------|----------------------------|
----------------------------|------------------------|----------------------------|
----------------------------|------------------------|----------------------------|
----------------------------|------------------------|----------------------------|
--------------2--5--4--L----|------------------------|--------------2--5--4--L----|
--0----3h--4----------------|--3--0--5----3--0--5----|--0----3h--4----------------|


     PM         PM                                         PM         PM       
                                |---3--|                                       
  E  E  Q    E  E  Q       Q    E   E  E  E  E  Q       E  E  Q    E  E  Q     
------------------------|----------------------------|------------------------|
------------------------|----------------------------|------------------------|
------------------------|----------------------------|------------------------|
------------------------|----------------------------|------------------------|
------------------------|--------------2--5--4--L----|------------------------|
--3--0--5----3--0--5----|--0----3h--4----------------|--3--0--5----3--0--5----|


                                  PM         PM                                    
       |---3--|                                              |---3--|              
  Q    E   E  E  E  E  Q       E  E  Q    E  E  Q       Q    E   E  E  E  E  Q     
----------------------------|------------------------|----------------------------|
----------------------------|------------------------|----------------------------|
----------------------------|------------------------|----------------------------|
--------------2--5--4--L----|------------------------|--------------2--5--4--L----|
--0----3h--4----------------|--3--0--5----3--0--5----|--0----3h--4----------------|
----------------------------|------------------------|----------------------------|


     PM         PM                                         PM         PM       
                                |---3--|                                       
  E  E  Q    E  E  Q       Q    E   E  E  E  E  Q       E  E  Q    E  E  Q     
------------------------|----------------------------|------------------------|
------------------------|----------------------------|------------------------|
------------------------|----------------------------|------------------------|
------------------------|----------------------------|------------------------|
--3--0--5----3--0--5----|--------------2--5--4--L----|------------------------|
------------------------|--0----3h--4----------------|--3--0--5----3--0--5----|


                                  PM         PM                                               
       |---3--|                                                                               
  Q    E   E  E  E  E  Q       E  E  Q    E  E  Q       W                   W                 
----------------------------|------------------------|-------------------|-------------------|
----------------------------|------------------------|-------------------|-------------------|
----------------------------|------------------------|-------------------|-------------------|
----------------------------|------------------------|-------------------|-------------------|
--------------2--5--4--L----|------------------------|--2----------------|--L----------------|
--0----3h--4----------------|--3--0--5----3--0--5----|--0----------------|--L----------------|


  W                   W                   W                   W                   W                 
-------------------|-------------------|-------------------|-------------------|-------------------|
-------------------|-------------------|-------------------|-------------------|-------------------|
-------------------|-------------------|-------------------|-------------------|-------------------|
-------------------|-------------------|-------------------|-------------------|-------------------|
-------------------|-------------------|-------------------|-------------------|-------------------|
-------------------|-------------------|-------------------|-------------------|-------------------|


  |--3--|  |--3--|  |--3--|  |--3--|                               |--3--|   |--3--|   
  E  E  E  E  E  E  E  E  E  E  E  E     Q     Q       E  E  E  E  E  E  E   E  E  E   
--------------------------------------|-------------|---------------------------------|
--------------------------------------|-------------|---------------------------------|
--7--7--7--7--7--7--7--7--7--7--7--7--|--7\---------|---------------------------------|
--7--7--7--7--7--7--7--7--7--7--7--7--|--7\---------|--2------------------------------|
--5--5--5--5--5--5--5--5--5--5--5--5--|--5\---------|--0--0--3--4---------------------|
--------------------------------------|-------------|--------------2--3--3~--2--3--3--|


                                      |--3--|   |--3--|                           
  E  E  E  E  H           E  E  E  E  E  E  E   E  E  E     E  E  E  E  H         
-----------------------|---------------------------------|-----------------------|
-----------------------|---------------------------------|-----------------------|
-----------------------|---------------------------------|-----------------------|
--2--------------------|--2------------------------------|--2--------------------|
--0--0--3--4-----------|--0--0--3--4---------------------|--0--0--3--4-----------|
-----------------------|--------------2--3--3~--2--3--3--|-----------------------|


                                                  \5                                          
              |--3--|   |--3--|                                           |--3--|   |--3--|   
  E  E  E  E  E  E  E   E  E  E     E  E  E  E    H           E  E  E  E  E  E  E   E  E  E   
---------------------------------|-------------------------|---------------------------------|
---------------------------------|-------------------------|---------------------------------|
---------------------------------|--------------<>7--------|---------------------------------|
--2------------------------------|--2-----------<>7--------|--2------------------------------|
--0--0--3--4---------------------|--0--0--3--4-------------|--0--0--3--4---------------------|
--------------2--3--3~--2--3--3--|-------------------------|--------------2--3--3~--2--3--3--|


  E  E  E  E     W                   E  E  E   E  E   E  E   E     E  E  E   E  E  E  E  E   
--------------|-------------------|-----------------------------|---------------------------|
--------------|-------------------|-----------------------------|---------------------------|
--------------|-------------------|-----------------------------|---------------------------|
--2-----------|-------------------|--2--2-----------------------|--2--2------------------2--|
--0--0--3--4--|-------------------|--0--0--3h--4----------------|--0--0--3h--4-----------0--|
--------------|-------------------|---------------2h--3--2h--3--|---------------2--3--2-----|


  E  E  E   E  E   E  E   E     E  E  E   E  E  E  E  E     E  E  E   E  E   E  E   E   
-----------------------------|---------------------------|-----------------------------|
-----------------------------|---------------------------|-----------------------------|
-----------------------------|---------------------------|-----------------------------|
--L--2-----------------------|--2--2------------------2--|--L--2-----------------------|
--L--0--3h--4----------------|--0--0--3h--4-----------0--|--L--0--3h--4----------------|
---------------2h--3--2h--3--|---------------2--3--2-----|---------------2h--3--2h--3--|


  E  E  E   E  E  E  E  E     E  E  E   E  E   E  E   E     E  E  E   E  E  E  E  E   
---------------------------|-----------------------------|---------------------------|
---------------------------|-----------------------------|---------------------------|
---------------------------|-----------------------------|---------------------------|
--2--2------------------2--|--L--2-----------------------|--2--2------------------2--|
--0--0--3h--4-----------0--|--L--0--3h--4----------------|--0--0--3h--4-----------0--|
---------------2--3--2-----|---------------2h--3--2h--3--|---------------2--3--2-----|


  E  E  E   E  E   E  E   E     E  E  E   E  E  E  E  E     E  E  E   E  E   E  E   E   
-----------------------------|---------------------------|-----------------------------|
-----------------------------|---------------------------|-----------------------------|
-----------------------------|---------------------------|-----------------------------|
--L--2-----------------------|--2--2------------------2--|--L--2-----------------------|
--L--0--3h--4----------------|--0--0--3h--4-----------0--|--L--0--3h--4----------------|
---------------2h--3--2h--3--|---------------2--3--2-----|---------------2h--3--2h--3--|


  E  E  E   E  E  E  E  E     E  E  E   E  E   E  E   E     E  E  E   E  E  E  E  E   
---------------------------|-----------------------------|---------------------------|
---------------------------|-----------------------------|---------------------------|
---------------------------|-----------------------------|---------------------------|
--2--2------------------2--|--L--2-----------------------|--2--2------------------2--|
--0--0--3h--4-----------0--|--L--0--3h--4----------------|--0--0--3h--4-----------0--|
---------------2--3--2-----|---------------2h--3--2h--3--|---------------2--3--2-----|


  E  E  E   E  E   E  E   E     E  E  E   E  E  E  E  E     E  E  E   E  E  E  E  E   
-----------------------------|---------------------------|---------------------------|
-----------------------------|---------------------------|---------------------------|
-----------------------------|---------------------------|---------------------------|
--L--2-----------------------|--2--2------------------2--|--L--2------------------2--|
--L--0--3h--4----------------|--0--0--3h--4-----------0--|--L--0--3h--4-----------0--|
---------------2h--3--2h--3--|---------------2--3--2-----|---------------2--3--2-----|


  E  E  E   E  E  E  E  E     E  E  Q    H           W                 
---------------------------|----------------------|-------------------|
---------------------------|----------------------|-------------------|
---------------------------|----------------------|--2----------------|
--L--2------------------2--|--L--2----------------|--2----------------|
--L--0--3h--4-----------0--|--L--0----------------|--0----------------|
---------------2--3--2-----|----------------------|-------------------|


                         
  W                                           H        Q    Q      
-------------------------------------------|---------------------||
-------------------------------------------|---------------------||
--L----------------------------------------|--L--------2---------||
--L----------------------------------------|--L--------2---------||
--L----------------------------------------|--L--------0---------||
-------------------------------------------|---------------------||



Guitar - lead


     W                   W                   W                   W                 
E||-------------------|-------------------|-------------------|-------------------|
B||-------------------|-------------------|-------------------|-------------------|
G||-------------------|-------------------|-------------------|-------------------|
D||-------------------|-------------------|-------------------|-------------------|
A||-------------------|-------------------|-------------------|-------------------|
E||-------------------|-------------------|-------------------|-------------------|


  W                   W                   W                   W                   W                 
-------------------|-------------------|-------------------|-------------------|-------------------|
-------------------|-------------------|-------------------|-------------------|-------------------|
-------------------|-------------------|-------------------|-------------------|-------------------|
-------------------|-------------------|-------------------|-------------------|-------------------|
-------------------|-------------------|-------------------|-------------------|-------------------|
-------------------|-------------------|-------------------|-------------------|-------------------|


  W                   W                   W                   W                   W                 
-------------------|-------------------|-------------------|-------------------|-------------------|
-------------------|-------------------|-------------------|-------------------|-------------------|
-------------------|-------------------|-------------------|-------------------|-------------------|
-------------------|-------------------|-------------------|-------------------|-------------------|
-------------------|-------------------|-------------------|-------------------|-------------------|
-------------------|-------------------|-------------------|-------------------|-------------------|


  W                   W                   W                   W                   W                 
-------------------|-------------------|-------------------|-------------------|-------------------|
-------------------|-------------------|-------------------|-------------------|-------------------|
-------------------|-------------------|-------------------|-------------------|-------------------|
-------------------|-------------------|-------------------|-------------------|-------------------|
-------------------|-------------------|-------------------|-------------------|-------------------|
-------------------|-------------------|-------------------|-------------------|-------------------|


                      Slide Guitar                                               
  W                   Q             E    E    H            Q.      E   H         
-------------------|-----------------------------------|------------------------|
-------------------|-----------------------------------|------------------------|
-------------------|--------------------14~---L--------|---L-------L\-----------|
-------------------|---------------14~-----------------|------------------------|
-------------------|-----------------------------------|------------------------|
-------------------|-----------------------------------|------------------------|


  W                   W                   W                   W                   W                 
-------------------|-------------------|-------------------|-------------------|-------------------|
-------------------|-------------------|-------------------|-------------------|-------------------|
-------------------|-------------------|-------------------|-------------------|-------------------|
-------------------|-------------------|-------------------|-------------------|-------------------|
-------------------|-------------------|-------------------|-------------------|-------------------|
-------------------|-------------------|-------------------|-------------------|-------------------|


  W                   W                   W                   W                   W                 
-------------------|-------------------|-------------------|-------------------|-------------------|
-------------------|-------------------|-------------------|-------------------|-------------------|
-------------------|-------------------|-------------------|-------------------|-------------------|
-------------------|-------------------|-------------------|-------------------|-------------------|
-------------------|-------------------|-------------------|-------------------|-------------------|
-------------------|-------------------|-------------------|-------------------|-------------------|


  W                   W                   W                   W                 
-------------------|-------------------|-------------------|-------------------|
-------------------|-------------------|-------------------|-------------------|
-------------------|-------------------|-------------------|-------------------|
-------------------|-------------------|-------------------|-------------------|
-------------------|-------------------|-------------------|-------------------|
-------------------|-------------------|-------------------|-------------------|


  Slide Guitar                                                                   
  Q             E    E    H            Q.      E   H           W                 
-----------------------------------|------------------------|-------------------|
-----------------------------------|------------------------|-------------------|
--------------------14~---L--------|---L-------L\-----------|-------------------|
---------------14~-----------------|------------------------|-------------------|
-----------------------------------|------------------------|-------------------|
-----------------------------------|------------------------|-------------------|


  W                   W                   W                   W                   W                 
-------------------|-------------------|-------------------|-------------------|-------------------|
-------------------|-------------------|-------------------|-------------------|-------------------|
-------------------|-------------------|-------------------|-------------------|-------------------|
-------------------|-------------------|-------------------|-------------------|-------------------|
-------------------|-------------------|-------------------|-------------------|-------------------|
-------------------|-------------------|-------------------|-------------------|-------------------|


  W                   W                   W                   W                   W                 
-------------------|-------------------|-------------------|-------------------|-------------------|
-------------------|-------------------|-------------------|-------------------|-------------------|
-------------------|-------------------|-------------------|-------------------|-------------------|
-------------------|-------------------|-------------------|-------------------|-------------------|
-------------------|-------------------|-------------------|-------------------|-------------------|
-------------------|-------------------|-------------------|-------------------|-------------------|


                      W                   W                   W                   W                 
-------------------|-------------------|-------------------|-------------------|-------------------|
-------------------|-------------------|-------------------|-------------------|-------------------|
-------------------|-------------------|-------------------|-------------------|-------------------|
-------------------|-------------------|-------------------|-------------------|-------------------|
-------------------|-------------------|-------------------|-------------------|-------------------|
-------------------|-------------------|-------------------|-------------------|-------------------|


                                    |---3---|                               
                      H        Q    E   E   E      H.             E    E    
-------------------|---------------------------|---------------------------|
-------------------|-------------------15--15--|---L-------------15----L~--|
-------------------|-------------------14--14--|---Lb------------14b---L---|
-------------------|---------------------------|---------------------------|
-------------------|---------------------------|---------------------------|
-------------------|---------------------------|---------------------------|


                                                                                       PM          
   Q     E    E    Q    Q         E   E   E   E   E   E   E   E      E   E   Q     E   E    Q      
------------------------------|----------------------------------|--------------------------------|
---L----15----L~---L----------|----------------------------------|------17---L--------------------|
---L----14b---L----L----7S----|--14--13--14--13--14--13--14--13--|---L------------15\--9S--14b----|
------------------------------|----------------------------------|--------------------------------|
------------------------------|----------------------------------|--------------------------------|
------------------------------|----------------------------------|--------------------------------|


                   |-----3----|   |---3---|      |----3---|                           
   E   E   E   E   E   E      E   E   E   E      E    E   E   E   E    E   E   Q      
--------------12--14--15--14g15--12----------|---------------------------------------|
--12--13--15-------------------------15--13--|--13p--12------12-----------15--15-----|
---------------------------------------------|-----------14------14b---L------14b----|
---------------------------------------------|---------------------------------------|
---------------------------------------------|---------------------------------------|
---------------------------------------------|---------------------------------------|


   E    E   E    E   E    E   E   E      Q      Q     Q      E   E   
-------------------------------------|------------------------------|
-------15-------15-------15----------|----------------------20---L--|
--14b------14b------14b------14--12--|---L~-----L\----7/------------|
-------------------------------------|------------------------------|
-------------------------------------|------------------------------|
-------------------------------------|------------------------------|


            |----3---|   |----3---|   |----3---|                                    
   E    E   E    E   E   E    E   E   E    E   E      E    E   E   E    Q     Q     
-------17-------17--17-------17--17-------17------|-------17--20--20b---L----20----|
--20b------20b----------20b----------20b------20--|--20b---------------------------|
--------------------------------------------------|--------------------------------|
--------------------------------------------------|--------------------------------|
--------------------------------------------------|--------------------------------|
--------------------------------------------------|--------------------------------|


             |----3---|   |----3---|                                                
   E     E   E    E   E   E   E    E   E   E       Q     E    E     E   E   E   E   
---Lbr---L--20p--17------17--------------------|-----------------------------------|
---------------------20------20p--17--20--20b--|---L----20b--20br---L--17--20--17--|
-----------------------------------------------|-----------------------------------|
-----------------------------------------------|-----------------------------------|
-----------------------------------------------|-----------------------------------|
-----------------------------------------------|-----------------------------------|


                                    |-3-|                             
   Q     Q     E     E   E   E      E   Q     Q       E   E   E   E   
--------------------------------|------------------------------------|
---L----20-----Lbr---L---L--17--|---L--20-----Lbr-----L--17--20--17--|
--------------------------------|------------------------------------|
--------------------------------|------------------------------------|
--------------------------------|------------------------------------|
--------------------------------|------------------------------------|


   Trem flutter while trilling                                                          
   S                           S   S   S   S   S   S   S   S   S   S   S   S   S   E    
---------------------------------------------------------------------------------------|
--17h-------------------------20p-17h-20p-17h-20p-17h-20p-17h-20p-17h-20p-17h-20p-17h--|
---------------------------------------------------------------------------------------|
---------------------------------------------------------------------------------------|
---------------------------------------------------------------------------------------|
---------------------------------------------------------------------------------------|


                                                        \6                                    
   S   S   S   S   S   S   S   S   E    S   S   Q       W                   W                 
-----------------------------------------------------|-------------------|-------------------|
--17h-20p-17h-20p-17h-20p-17h-20p-17h--20p-17h-20----|-------------------|-------------------|
-----------------------------------------------------|-------------------|-------------------|
-----------------------------------------------------|-------------------|-------------------|
-----------------------------------------------------|-------------------|-------------------|
-----------------------------------------------------|--0----------------|--L----------------|


  W                   W                   W                   W                   W                 
-------------------|-------------------|-------------------|-------------------|-------------------|
-------------------|-------------------|-------------------|-------------------|-------------------|
-------------------|-------------------|-------------------|-------------------|-------------------|
-------------------|-------------------|-------------------|-------------------|-------------------|
-------------------|-------------------|-------------------|-------------------|-------------------|
-------------------|-------------------|-------------------|-------------------|-------------------|


  W                   H           W                   W                   W                 
-------------------|-----------|-------------------|-------------------|-------------------|
-------------------|-----------|-------------------|-------------------|-------------------|
-------------------|-----------|-------------------|-------------------|-------------------|
-------------------|-----------|-------------------|-------------------|-------------------|
-------------------|-----------|-------------------|-------------------|-------------------|
-------------------|-----------|-------------------|-------------------|-------------------|


              Bass Guitar (do not play)                                                 
              NH                        NH    NH    NH    NH    NH                      
              |---------------3---------------|     |-----3-----|                       
  H           E                         E     E     E     E     E     W                 
-------------------------------------------------------------------|-------------------|
-------------------------------------------------------------------|-------------------|
-------------------------------------------------------------<>12--|-------------------|
-------------------------------------------<>12--------<>12--------|-------------------|
-------------------------------------<>12--------<>12--------------|-------------------|
-----------<>12-------------------------------------x--------------|-------------------|


  W                   W                   H           W                   W                 
-------------------|-------------------|-----------|-------------------|-------------------|
-------------------|-------------------|-----------|-------------------|-------------------|
-------------------|-------------------|-----------|-------------------|-------------------|
-------------------|-------------------|-----------|-------------------|-------------------|
-------------------|-------------------|-----------|-------------------|-------------------|
-------------------|-------------------|-----------|-------------------|-------------------|


  W                   W                   W                   W      
comments
We did not receive enough feedback on this tab! Please rate:
1 2 3 4 5
1 comment total.
0 reply
TexasFury wrote on November 10 2008, 06:11 pm

This a 100% Certified Texas Tab™. Don't settle for less. Only a song by a Texas band that is tabbed by a Texas Shredder in The Great Republic of Texas can be labeled a Genuine Texas Tab™. SRV approved.

I want to post or [tab]
guest
You may want to rate the tab now too:
select rating
Please do not post tabs as comments. Select "correction" instead!