Oops, an error
Loading. Please wait.

That Dog Tab

315 views 1 this week
no commentswrite comment
1 2 3 4 5
please rate
Autoscroll
+/-
esc
set tempo
stop
Contributor
Tabbers playing skills
advanced ++
WARNING: You are trying to view
                                    content from Ultimate-Guitar.com
                                    in an unauthorized application,
                                    which is prohibited.

                                    Please use an official Ultimate
                                    Guitar Tabs application for iPhone,
                                    iPad or Android to access legitimate
                                    chords, guitar, bass, and drum tabs
                                    from Ultimate-Guitar.com database.

                                    Type "ultimate guitar tabs" in Apple
                                    App Store's or Android Market's
                                    search to find the application.
-------------------------------------------------------------------------------
                             THAT DOG - Dangerous Toys
-------------------------------------------------------------------------------

Tabbed by: Isaias Garcia

Tuning: Standard



Rhythm - left

Intro
      H.            Q        E  E  E  E  E  E  E  E     E  E  E  E  E  E  E  E   
E||-----------------------|--------------------------|--------------------------|
B||--10-------------------|--------------------------|--------------------------|
G||---9-------------------|--------------------------|--------------------------|
D||---7-------------------|-----------2--5--2--------|-----------2--5--2--------|
A||-----------------------|--------5-----------5-----|--------4-----------4-----|
E||----------------12\----|--0--0-----------------0--|--L--0-----------------0--|


  E  E  E  E  E  E  E  E     E  E  E  E  E  E  E  E     E  E  E  E  E  E  E  E   
--------------------------|--------------------------|--------------------------|
--------------------------|--------------------------|--------------------------|
--------------------------|--------------------------|--------------------------|
-----------2--5--2--------|--------------5--4-----4--|-----------2--5--2--------|
--------3-----------3-----|--------------------7-----|--------5-----------5-----|
--L--0-----------------0--|--L--5--6--7--------------|--0--0-----------------0--|


  E  E  E  E  E  E  E  E     E  E  E  E  E  E  E  E     E  E  E  E  E  E  E  E   
--------------------------|--------------------------|--------------------------|
--------------------------|--------------------------|--------------------------|
--------------------------|--------------------------|--------------------------|
-----------2--5--2--------|-----------2--5--2--------|--------------5--4-----4--|
--------4-----------4-----|--------3-----------3-----|--------------------7-----|
--L--0-----------------0--|--L--0-----------------0--|--L--5--6--7--------------|

Verse 1
  PM PM PM PM PM PM PM       PM PM PM PM PM PM PM       PM PM PM PM PM PM PM     
  E  E  E  E  E  E  E  E     E  E  E  E  E  E  E  E     E  E  E  E  E  E  E  E   
--------------------------|--------------------------|--------------------------|
--------------------------|--------------------------|--------------------------|
--------------0--------0--|--------------0--------0--|--------------0-----------|
-----------2-----2-----2--|-----------2-----2-----2--|-----------2-----2--------|
--------5-----------5-----|--------4-----------4-----|--------3-----------3-----|
--0--0--------------------|--0--0--------------------|--0--0-----------------0--|


                             PM PM PM PM PM PM PM       PM PM PM PM PM PM PM     
  E  E  E  E  E  E  E  E     E  E  E  E  E  E  E  E     E  E  E  E  E  E  E  E   
--------------------------|--------------------------|--------------------------|
--------------------------|--------------------------|--------------------------|
--------------------------|--------------0--------0--|--------------0--------0--|
--------------5--4-----4--|-----------2-----2-----2--|-----------2-----2-----2--|
--------------------7-----|--------5-----------5-----|--------4-----------4-----|
--L--5--6--7--------------|--0--0--------------------|--0--0--------------------|


  PM PM PM PM PM PM PM                                                        
  E  E  E  E  E  E  E  E     E  E  E  E  E  E  E  E     H        E  E  E  E   
--------------------------|--------------------------|-----------------------|
--------------------------|--------------------------|-----------------------|
--------------0-----------|--------------------------|-----------------------|
-----------2-----2--------|--------------5--4-----4--|--------------4--5--4--|
--------3-----------3-----|--------------------7-----|--5--------7--------2--|
--0--0-----------------0--|--L--5--6--7--------------|--3--------------------|


  Q    E  E  E  E  E  E     Q.     E   E  E  E  E     E  E  E  E  E  E  E   E    
-------------------------|-------------------------|----------------------------|
-------------------------|-------------------------|----------------------------|
-------------------------|-------------------------|----------------------------|
--L----4--5--7--5--4--5--|--3------3/--------5-----|--------------5--4----------|
--L----------------------|--1------1/--5--7-----2--|--L-----------------7~--L/--|
-------------------------|----------------------0--|--L--5--6--7----------------|


  H        E  E  E  E     Q    E  E  E  E  E  E     E  E  E  E  E  E  E   E   
-----------------------|-------------------------|---------------------------|
-----------------------|-------------------------|---------------------------|
-----------------------|-------------------------|---------------------------|
--------------4--5--4--|--L----4--5--7--5--4--5--|--------------------5~-----|
--5--------7--------2--|--L----------------------|--3--3--L-----5--7---------|
--3--------------------|-------------------------|--1--1--L--0------------0--|


  E  E  E  E  E  E  E  E     E  E  E  E  E  E  E  E     E  E  E  E  E  E  E  E   
--------------------------|--------------------------|--------------------------|
--------------------------|--------------------------|--------------------------|
--------------------------|--------------------------|--------------------------|
--------------5--4-----4--|-----------2--5--2--------|-----------2--5--2--------|
--------------------7-----|--------5-----------5-----|--------4-----------4-----|
--L--5--6--7--------------|--0--0-----------------0--|--L--0-----------------0--|

                                                       Verse 2
                                                         PM PM PM PM PM PM PM     
  E  E  E  E  E  E  E  E     E  E  E  E  E   E  E  E     E  E  E  E  E  E  E  E   
--------------------------|---------------------------|--------------------------|
--------------------------|---------------------------|--------------------------|
--------------------------|---------------------------|--------------0--------0--|
-----------2--5--2--------|--------------5p--4-----4--|-----------2-----2-----2--|
--------3-----------3-----|---------------------7-----|--------5-----------5-----|
--L--0-----------------0--|--L--5--6--7---------------|--0--0--------------------|


  PM PM PM PM PM PM PM       PM PM PM PM PM PM PM                                
  E  E  E  E  E  E  E  E     E  E  E  E  E  E  E  E     E  E  E  E  E  E  E  E   
--------------------------|--------------------------|--------------------------|
--------------------------|--------------------------|--------------------------|
--------------0--------0--|--------------0-----------|--------------------------|
-----------2-----2-----2--|-----------2-----2--------|--------------5--4-----4--|
--------4-----------4-----|--------3-----------3-----|--------------------7-----|
--0--0--------------------|--0--0-----------------0--|--L--5--6--7--------------|


  PM PM PM PM PM PM PM       PM PM PM PM PM PM PM       PM PM PM PM PM PM PM     
  E  E  E  E  E  E  E  E     E  E  E  E  E  E  E  E     E  E  E  E  E  E  E  E   
--------------------------|--------------------------|--------------------------|
--------------------------|--------------------------|--------------------------|
--------------0--------0--|--------------0--------0--|--------------0-----------|
-----------2-----2-----2--|-----------2-----2-----2--|-----------2-----2--------|
--------5-----------5-----|--------4-----------4-----|--------3-----------3-----|
--0--0--------------------|--0--0--------------------|--0--0-----------------0--|


  E  E  E  E  E  E  E  E     H        E  E  E  E     Q    E  E  E  E  E  E   
--------------------------|-----------------------|-------------------------|
--------------------------|-----------------------|-------------------------|
--------------------------|-----------------------|-------------------------|
--------------5--4-----4--|--------------4--5--4--|--L----4--5--7--5--4--5--|
--------------------7-----|--5--------7--------2--|--L----------------------|
--L--5--6--7--------------|--3--------------------|-------------------------|


  Q.     E   E  E  E  E     E  E  E  E  E  E  E   E      H        E  E  E  E   
-------------------------|----------------------------|-----------------------|
-------------------------|----------------------------|-----------------------|
-------------------------|----------------------------|-----------------------|
--3------3/--------5-----|--------------5--4----------|--------------4--5--4--|
--1------1/--5--7-----2--|--L-----------------7~--L/--|--5--------7--------2--|
----------------------0--|--L--5--6--7----------------|--3--------------------|


  Q    E  E  E  E  E  E     E  E  E  E  E  E  E   E     E  E  E  E  E  E  E  E   
-------------------------|---------------------------|--------------------------|
-------------------------|---------------------------|--------------------------|
-------------------------|---------------------------|--------------------------|
--L----4--5--7--5--4--5--|--------------------5~-----|--------------5--4-----4--|
--L----------------------|--3--3--L-----5--7---------|--------------------7-----|
-------------------------|--1--1--L--0------------0--|--L--5--6--7--------------|

Chorus 1
           PM                       PM PM                      PM PM               
  E  E  E  E  E  E   E  E     E  E  E  E  E  E  E  E     E  E  E  E  E  E   E  E   
---------------------------|--------------------------|---------------------------|
---------------------------|--------------6--6--L--6--|---------------------------|
--------------5--5~--L--5--|--------------5--5--L--5--|--------------5--5~--L--5--|
--2--2--------5--5~--L--5--|--2--2--------3--3--L--3--|--2--2--------5--5~--L--5--|
--0--0--3--0---------------|--0--0--3--0--------------|--0--0--3--0---------------|
---------------------------|--------------------------|---------------------------|


   PM                             PM PM PM                    PM PM PM              
   E   E  E  E  E  E  E  E     E  E  E  E  E  E   E  E     E  E  E  E  E  E  E  E   
----------------------------|---------------------------|--------------------------|
----------------------------|---------------------------|--------------6--6--------|
-------------------------2--|--2--2--------5--5~--L--5--|--2--2--------3--3--------|
-------2-----2--L--2-----0--|--0--0--3--0--3--3~--L--3--|--0--0--3--0--------3--5--|
--(0)--0-----0--L--0--------|---------------------------|--------------------------|
----------------------------|---------------------------|--------------------------|

                                                     Bridge
       PM PM PM PM PM                                                                 
  Q    E  E  E  E  E  E     E  E  E  E  E  E  E  E     E   E  E  E  E  S  S S S S S   
-------------------------|--------------------------|--------------------------------|
-------------------------|--------------------------|--------------------------------|
--5----------------------|-----5--L-----------------|--------------------------------|
--5----5--5--5--5--5--5--|--L--5--L--5--L--5--------|--------------------------------|
--3----3--3--3--3--3--3--|--L--3--L--3--L--3--x-----|---------7--------7p-5----------|
-------------------------|-----------------------0--|--3b--0-----0----------6-5-0-3b-|


  E  E  E  E  E  S  S S S S S     E  E  E  E  E  S  S S S S S     E  E  E  E  E  S  S S S S S   
-------------------------------|-------------------------------|-------------------------------|
-------------------------------|-------------------------------|-------------------------------|
-------------------------------|-------------------------------|-------------------------------|
-------------------------------|-------------------------------|-------------------------------|
--------7--------7p-5----------|--------7--------7p-5----------|--------7--------7p-5----------|
--L--0-----0----------6-5-0-3b-|--L--0-----0----------6-5-0-3b-|--L--0-----0----------6-5-0-3b-|


  E  E  E  E  E  S  S S S S S     E  E  E  E  E  S  S S S S S     E  E  E  E  E  S  S S S S S   
-------------------------------|-------------------------------|-------------------------------|
-------------------------------|-------------------------------|-------------------------------|
-------------------------------|-------------------------------|-------------------------------|
-------------------------------|-------------------------------|-------------------------------|
--------7--------7p-5----------|--------7--------7p-5----------|--------7--------7p-5----------|
--L--0-----0----------6-5-0-3b-|--L--0-----0----------6-5-0-3b-|--L--0-----0----------6-5-0-3b-|


  E  E  E  E  E  S  S S S E     E  E  Q    Q    E  E     Q    Q    Q    E  E   
-----------------------------|------------------------|-----------------------|
-----------------------------|------------------------|-----------------------|
-----------------------------|------------------------|-----------------------|
-----------------------------|------------------------|-----------------------|
--------7--------7p-5--------|--5--5---------------9--|--L-----------------8--|
--L--0-----0----------6-5-0--|--3--3---------------7--|--L-----------------6--|


  Q    Q    Q    E  E     E  E  E  E  E  E  E  E     E  E  Q    Q    E  E     Q    Q    Q    E  E   
-----------------------|--------------------------|------------------------|-----------------------|
-----------------------|--------------------------|------------------------|-----------------------|
-----------------------|--------------------------|------------------------|-----------------------|
-----------------------|--------------5--4-----4--|------------------------|-----------------------|
--L--------------------|--------------------7-----|--5--5---------------9--|--L-----------------3--|
--L-----------------0--|--L--5--6--7--------------|--3--3---------------7--|--L-----------------1--|

                                                       Guitar Solo
                                                               PM PM PM PM PM PM  
  E  E  E  E  E  E  E  E     E  E  E  E  E  E  E   S S    Q    E  E  E  E  E  E   
--------------------------|----------------------------|-------------------------|
--------------------------|----------------------------|-------------------------|
--------------------------|-----4-----4--L--4--4\------|-------------------------|
--------------------------|-----2-----2--L--2--2\------|-------------------------|
--L--3--3--3--3--3--L--2--|--L--------2--L-------------|--2----2--2--2--2--2--2--|
--L--1--1--1--1--1--L--0--|--L--------0--L---------0-0-|--0----0--0--0--0--0--0--|


  PM PM PM PM PM PM PM PM    PM PM PM PM PM PM PM                                
  E  E  E  E  E  E  E  E     E  E  E  E  E  E  E  E     E  E  E  E  E  E  E  E   
--------------------------|--------------------------|--------------------------|
--------------------------|--------------------------|--------------------------|
--------------------------|--------------------------|--------------------------|
--------------------------|--------------------------|--------------------------|
--2--2--2--2--2--2--2--2--|--2--2--2--2--2--2--2--7--|-----2-----7-----2-----2--|
--0--0--0--0--0--0--0--0--|--0--0--0--0--0--0--0--5--|-----0-----5-----0-----0--|


        PM PM PM PM PM PM    PM PM PM PM PM PM PM PM    PM PM PM PM PM PM PM     
  E  E  E  E  E  E  E  E     E  E  E  E  E  E  E  E     E  E  E  E  E  E  E  E   
--------------------------|--------------------------|--------------------------|
--------------------------|--------------------------|--------------------------|
--------------------------|--------------------------|--------------------------|
--------------------------|--------------------------|-----------------------7--|
--7--7--7--7--7--7--7--7--|--7--7--7--7--7--7--7--7--|--7--7--7--7--7--7--7--5--|
--5--5--5--5--5--5--5--5--|--5--5--5--5--5--5--5--5--|--5--5--5--5--5--5--5-----|


                                  PM PM PM PM PM PM    PM PM PM PM            
  E  E  E  E  E  E  E  E     Q    E  E  E  E  E  E     E  E  E  E  H          
--------------------------|-------------------------|------------------------|
--------------------------|-------------------------|------------------------|
--------------------------|-------------------------|------------------------|
-----------7--------------|--7----7--7--7--7--7--7--|--7--7--7--7--7\--------|
-----7-----5-----7-----7--|--5----5--5--5--5--5--5--|--5--5--5--5--5\--------|
-----5-----------5-----5--|-------------------------|------------------------|


  E  E  E  E  E  E  E  E     E  E  E  E  Q     Q        E  E  E  E  E  E  E  E   
--------------------------|--------------------------|--------------------------|
--------------------------|--------------------------|--------------------------|
--------------------------|--------------------------|--------------------------|
--7--7--7--6--6--6--5--5--|--5--4--4--4--3-----------|-----------2--5--2--------|
--5--5--5--4--4--4--3--3--|--3--2--2--2--1-----------|--------5-----------5-----|
--------------------------|-------------------12\----|--0--0-----------------0--|


  E  E  E  E  E  E  E  E     E  E  E  E  E  E  E  E     E  E  E  E  E  E  E  E   
--------------------------|--------------------------|--------------------------|
--------------------------|--------------------------|--------------------------|
--------------------------|--------------------------|--------------------------|
-----------2--5--2--------|-----------2--5--2--------|--------------5--4-----4--|
--------4-----------4-----|--------3-----------3-----|--------------------7-----|
--L--0-----------------0--|--L--0-----------------0--|--L--5--6--7--------------|

Verse 3
  PM PM PM PM PM PM PM       PM PM PM PM PM PM PM       PM PM PM PM PM PM PM     
  E  E  E  E  E  E  E  E     E  E  E  E  E  E  E  E     E  E  E  E  E  E  E  E   
--------------------------|--------------------------|--------------------------|
--------------------------|--------------------------|--------------------------|
--------------0--------0--|--------------0--------0--|--------------0-----------|
-----------2-----2-----2--|-----------2-----2-----2--|-----------2-----2--------|
--------5-----------5-----|--------4-----------4-----|--------3-----------3-----|
--0--0--------------------|--0--0--------------------|--0--0-----------------0--|


                             PM PM PM PM PM PM PM       PM PM PM PM PM PM PM     
  E  E  E  E  E  E  E  E     E  E  E  E  E  E  E  E     E  E  E  E  E  E  E  E   
--------------------------|--------------------------|--------------------------|
--------------------------|--------------------------|--------------------------|
--------------------------|--------------0--------0--|--------------0--------0--|
--------------5--4-----4--|-----------2-----2-----2--|-----------2-----2-----2--|
--------------------7-----|--------5-----------5-----|--------4-----------4-----|
--L--5--6--7--------------|--0--0--------------------|--0--0--------------------|

                                                      Chorus 2
  PM PM PM PM PM PM PM                                           PM              
  E  E  E  E  E  E  E  E     E  E  E  E  E  E  E  E     E  E  E  E  E  E  E  E   
--------------------------|--------------------------|--------------------------|
--------------------------|--------------------------|--------------------------|
--------------0-----------|--------------------------|--------------5--5--L--5--|
-----------2-----2--------|--------------5--4-----4--|--2--2--------5--5--L--5--|
--------3-----------3-----|--------------------7-----|--0--0--3--0--------------|
--0--0-----------------0--|--L--5--6--7--------------|--------------------------|


        PM PM                   PM PM PM                 PM                       
  E  E  E  E  E  E  E  E     E  E  E  E  E  E   E  E     E  E  E  E  E  E  E  E   
--------------------------|---------------------------|--------------------------|
--------------6--6--L--6--|---------------------------|--------------------------|
--------------5--5--L--5--|--------------5--5~--L--5--|-----------------------2--|
--2--2--------3--3--L--3--|--2-----------5--5~--L--5--|-----2-----2--L--2-----0--|
--0--0--3--0--------------|--0--0--3--0---------------|--0--0-----0--L--0--------|
--------------------------|---------------------------|--------------------------|


     PM PM PM                    PM PM PM                     PM PM PM PM        
  E  E  E  E  E  E   E  E     E  E  E  E  E  E  E  E     Q    E  E  E  E  E  E   
---------------------------|--------------------------|-------------------------|
------------------------6--|--------------6--6--------|-------------------------|
--2-----------5--5~--L--5--|--2--2--------3--3--------|--5----------------------|
--0--0--3--0--3--3~--L--3--|--0--0--3--0--------3--5--|--5----5--5--5--5--5--5--|
---------------------------|--------------------------|--3----3--3--3--3--3--3--|
---------------------------|--------------------------|-------------------------|


                                   PM PM                      PM PM              
  E  E  E  E  E  E  E  E     E  E  E  E  E  E  E  E     E  E  E  E  E  E  E  E   
--------------------------|--------------------------|--------------------------|
--------------------------|--------------------------|--------------6--6--6--6--|
-----5--L-----------------|--------------5--5--L--5--|--------------5--5--5--5--|
--5--5--L--5--L--5--5-----|--2--2--------5--5--L--5--|--2--2--------3--3--3--3--|
--3--3--L--3--L--3--3--0--|--0--0--3--0--------------|--0--0--3--0--------------|
--------------------------|--------------------------|--------------------------|


        PM PM                PM                            PM    PM              
  E  E  E  E  E  E  E  E     E  E  E  E  E  E  E  E     E  E  E  E  Q     E  E   
--------------------------|--------------------------|--------------------------|
--------------------------|--------------------------|--------6-----6~----6--6--|
--------------5--5--5--5--|-----------------------2--|--2-----5-----5~----5--5--|
--2--2--------5--5--5--5--|-----2-----2--L--2-----0--|--0--0-----0--------------|
--0--0--3--0--------------|--0--0-----0--L--0--------|--------------------------|
--------------------------|--------------------------|--------------------------|


  PM PM    PM       PM PM         PM PM PM PM PM PM                      PM PM  
  E  E  E  E  Q     E  E     Q    E  E  E  E  E  E     E  E  E  E  E  E  E  E   
--------------------------|-------------------------|--------------------------|
--------6-----6~----------|-------------------------|--------------------------|
--2--2--5-----5~----------|--5----------------------|-----5--L-----------------|
--0--0-----0--3~----3--5--|--5----5--5--5--5--5--5--|--5--5--L--5--L--5--------|
--------------------------|--3----3--3--3--3--3--3--|--3--3--L--3--L--3--3--0--|
--------------------------|-------------------------|--------------------------|


  E  E  E  E  E  E  E  E     E  E  E  E  Q     Q        E   E  E  E  E  S  S S S S S   
--------------------------|--------------------------|--------------------------------|
--------------------------|--------------------------|--------------------------------|
--------------------------|--------------------------|--------------------------------|
--7--7--7--6--6--6--5--5--|--5--4--4--4--3-----------|--------------------------------|
--5--5--5--4--4--4--3--3--|--3--2--2--2--1-----------|---------7--------7p-5----------|
--------------------------|-------------------12\----|--3b--0-----0----------6-5-0-3b-|

   
  E  E  E  E  H                                          
-------------------------------------------------------||
-------------------------------------------------------||
-------------------------------------------------------||
-------------------------------------------------------||
--------7----------------------------------------------||
--L--0-----0-------------------------------------------||



Rhythm - right

      H.            Q        E  E  E  E  E  E  E  E     E  E  E  E  E  E  E  E   
E||-----------------------|--------------------------|--------------------------|
B||--10-------------------|--------------------------|--------------------------|
G||---9-------------------|--------------------------|--------------------------|
D||---7-------------------|-----------2--5--2--------|-----------2--5--2--------|
A||-----------------------|--------5-----------5-----|--------4-----------4-----|
E||----------------12\----|--0--0-----------------0--|--L--0-----------------0--|


  E  E  E  E  E  E  E  E     E  E  E  E  E  E  E  E     E  E  E  E  E  E  E  E   
--------------------------|--------------------------|--------------------------|
--------------------------|--------------------------|--------------------------|
--------------------------|--------------------------|--------------------------|
-----------2--5--2--------|--------------5--4-----4--|-----------2--5--2--------|
--------3-----------3-----|--------------------7-----|--------5-----------5-----|
--L--0-----------------0--|--L--5--6--7--------------|--0--0-----------------0--|


  E  E  E  E  E  E  E  E     E  E  E  E  E  E  E  E     E  E  E  E  E  E  E  E   
--------------------------|--------------------------|--------------------------|
--------------------------|--------------------------|--------------------------|
--------------------------|--------------------------|--------------------------|
-----------2--5--2--------|-----------2--5--2--------|--------------5--4-----4--|
--------4-----------4-----|--------3-----------3-----|--------------------7-----|
--L--0-----------------0--|--L--0-----------------0--|--L--5--6--7--------------|


  PM PM PM PM PM PM PM       PM PM PM PM PM PM PM       PM PM PM PM PM PM PM     
  E  E  E  E  E  E  E  E     E  E  E  E  E  E  E  E     E  E  E  E  E  E  E  E   
--------------------------|--------------------------|--------------------------|
--------------------------|--------------------------|--------------------------|
--------------0--------0--|--------------0--------0--|--------------0-----------|
-----------2-----2-----2--|-----------2-----2-----2--|-----------2-----2--------|
--------5-----------5-----|--------4-----------4-----|--------3-----------3-----|
--0--0--------------------|--0--0--------------------|--0--0-----------------0--|


                             PM PM PM PM PM PM PM       PM PM PM PM PM PM PM     
  E  E  E  E  E  E  E  E     E  E  E  E  E  E  E  E     E  E  E  E  E  E  E  E   
--------------------------|--------------------------|--------------------------|
--------------------------|--------------------------|--------------------------|
--------------------------|--------------0--------0--|--------------0--------0--|
--------------5--4-----4--|-----------2-----2-----2--|-----------2-----2-----2--|
--------------------7-----|--------5-----------5-----|--------4-----------4-----|
--L--5--6--7--------------|--0--0--------------------|--0--0--------------------|


  PM PM PM PM PM PM PM                                                        
  E  E  E  E  E  E  E  E     E  E  E  E  E  E  E  E     H        E  E  E  E   
--------------------------|--------------------------|-----------------------|
--------------------------|--------------------------|-----------------------|
--------------0-----------|--------------------------|-----------------------|
-----------2-----2--------|--------------5--4-----4--|--------------4--5--4--|
--------3-----------3-----|--------------------7-----|--5--------7--------2--|
--0--0-----------------0--|--L--5--6--7--------------|--3--------------------|


  Q    E  E  E  E  E  E     Q.     E   E  E  E  E     E  E  E  E  E  E  E   E    
-------------------------|-------------------------|----------------------------|
-------------------------|-------------------------|----------------------------|
-------------------------|-------------------------|----------------------------|
--L----4--5--7--5--4--5--|--3------3/--------5-----|--------------5--4----------|
--L----------------------|--1------1/--5--7-----2--|--L-----------------7~--L/--|
-------------------------|----------------------0--|--L--5--6--7----------------|


  H        E  E  E  E     Q    E  E  E  E  E  E     E  E  E  E  E  E  E   E   
-----------------------|-------------------------|---------------------------|
-----------------------|-------------------------|---------------------------|
-----------------------|-------------------------|---------------------------|
--------------4--5--4--|--L----4--5--7--5--4--5--|--------------------5~-----|
--5--------7--------2--|--L----------------------|--3--3--L-----5--7---------|
--3--------------------|-------------------------|--1--1--L--0------------0--|


  E  E  E  E  E  E  E  E     E  E  E  E  E  E  E  E     E  E  E  E  E  E  E  E   
--------------------------|--------------------------|--------------------------|
--------------------------|--------------------------|--------------------------|
--------------------------|--------------------------|--------------------------|
--------------5--4-----4--|-----------2--5--2--------|-----------2--5--2--------|
--------------------7-----|--------5-----------5-----|--------4-----------4-----|
--L--5--6--7--------------|--0--0-----------------0--|--L--0-----------------0--|


                                                         PM PM PM PM PM PM PM     
  E  E  E  E  E  E  E  E     E  E  E  E  E   E  E  E     E  E  E  E  E  E  E  E   
--------------------------|---------------------------|--------------------------|
--------------------------|---------------------------|--------------------------|
--------------------------|---------------------------|--------------0--------0--|
-----------2--5--2--------|--------------5p--4-----4--|-----------2-----2-----2--|
--------3-----------3-----|---------------------7-----|--------5-----------5-----|
--L--0-----------------0--|--L--5--6--7---------------|--0--0--------------------|


  PM PM PM PM PM PM PM       PM PM PM PM PM PM PM                                
  E  E  E  E  E  E  E  E     E  E  E  E  E  E  E  E     E  E  E  E  E  E  E  E   
--------------------------|--------------------------|--------------------------|
--------------------------|--------------------------|--------------------------|
--------------0--------0--|--------------0-----------|--------------------------|
-----------2-----2-----2--|-----------2-----2--------|--------------5--4-----4--|
--------4-----------4-----|--------3-----------3-----|--------------------7-----|
--0--0--------------------|--0--0-----------------0--|--L--5--6--7--------------|


  PM PM PM PM PM PM PM       PM PM PM PM PM PM PM       PM PM PM PM PM PM PM     
  E  E  E  E  E  E  E  E     E  E  E  E  E  E  E  E     E  E  E  E  E  E  E  E   
--------------------------|--------------------------|--------------------------|
--------------------------|--------------------------|--------------------------|
--------------0--------0--|--------------0--------0--|--------------0-----------|
-----------2-----2-----2--|-----------2-----2-----2--|-----------2-----2--------|
--------5-----------5-----|--------4-----------4-----|--------3-----------3-----|
--0--0--------------------|--0--0--------------------|--0--0-----------------0--|


  E  E  E  E  E  E  E  E     H        E  E  E  E     Q    E  E  E  E  E  E   
--------------------------|-----------------------|-------------------------|
--------------------------|-----------------------|-------------------------|
--------------------------|-----------------------|-------------------------|
--------------5--4-----4--|--------------4--5--4--|--L----4--5--7--5--4--5--|
--------------------7-----|--5--------7--------2--|--L----------------------|
--L--5--6--7--------------|--3--------------------|-------------------------|


  Q.     E   E  E  E  E     E  E  E  E  E  E  E   E      H        E  E  E  E   
-------------------------|----------------------------|-----------------------|
-------------------------|----------------------------|-----------------------|
-------------------------|----------------------------|-----------------------|
--3------3/--------5-----|--------------5--4----------|--------------4--5--4--|
--1------1/--5--7-----2--|--L-----------------7~--L/--|--5--------7--------2--|
----------------------0--|--L--5--6--7----------------|--3--------------------|


  Q    E  E  E  E  E  E     E  E  E  E  E  E  E   E     E  E  E  E  E  E  E  E   
-------------------------|---------------------------|--------------------------|
-------------------------|---------------------------|--------------------------|
-------------------------|---------------------------|--------------------------|
--L----4--5--7--5--4--5--|--------------------5~-----|--------------5--4-----4--|
--L----------------------|--3--3--L-----5--7---------|--------------------7-----|
-------------------------|--1--1--L--0------------0--|--L--5--6--7--------------|


           PM                         PM                         PM              
  E  E  E  E  E  E  E  E     E  E  E  E  E  E  E  E     E  E  E  E  E  E  E  E   
--------------------------|--------------------------|--------------------------|
--------------------------|--------------6--6--L--6--|--------------------------|
--------------5--5--L--5--|--------------5--5--L--5--|--------------5--5--L--5--|
--2--2--------5--5--L--5--|--2--2--------3--3--L--3--|--2--2--------5--5--L--5--|
--0--0--3--0--------------|--0--0--3--0--------------|--0--0--3--0--------------|
--------------------------|--------------------------|--------------------------|


   PM                                PM PM                   PM PM PM              
   E   E  E  E  E  E  E  E     E  E  E  E  E  E  E  E     E  E  E  E  E  E  E  E   
----------------------------|--------------------------|--------------------------|
----------------------------|--------------------------|--------------6--6--6-----|
-------------------------2--|--2--2--------5--5--5--5--|--2--2--------3--3--3-----|
-------2-----2--L--2-----0--|--0--0--3--0--3--3--3--3--|--0--0--3--0-----------5--|
--(0)--0-----0--L--0--------|--------------------------|--------------------------|
----------------------------|--------------------------|--------------------------|


  Q    E  E  E  E  E  E     E  E  E  E  E  E  E  E     E   E  E  E  E  S  S S S S S   
-------------------------|--------------------------|--------------------------------|
-------------------------|--------------------------|--------------------------------|
--5----------------------|-----5--L-----------------|--------------------------------|
--5----5--5--5--5--5--5--|--5--5--L--5--L--5--------|--------------------------------|
--3----3--3--3--3--3--3--|--3--3--L--3--L--3--x-----|---------7--------7p-5----------|
-------------------------|-----------------------0--|--3b--0-----0----------6-5-0-3b-|


  E  E  E  E  E  S  S S S S S     E  E  E  E  E  S  S S S S S     E  E  E  E  E  S  S S S S S   
-------------------------------|-------------------------------|-------------------------------|
-------------------------------|-------------------------------|-------------------------------|
-------------------------------|-------------------------------|-------------------------------|
-------------------------------|-------------------------------|-------------------------------|
--------7--------7p-5----------|--------7--------7p-5----------|--------7--------7p-5----------|
--L--0-----0----------6-5-0-3b-|--L--0-----0----------6-5-0-3b-|--L--0-----0----------6-5-0-3b-|


  E  E  E  E  E  S  S S S S S     E  E  E  E  E  S  S S S S S     E  E  E  E  E  S  S S S S S   
-------------------------------|-------------------------------|-------------------------------|
-------------------------------|-------------------------------|-------------------------------|
-------------------------------|-------------------------------|-------------------------------|
-------------------------------|-------------------------------|-------------------------------|
--------7--------7p-5----------|--------7--------7p-5----------|--------7--------7p-5----------|
--L--0-----0----------6-5-0-3b-|--L--0-----0----------6-5-0-3b-|--L--0-----0----------6-5-0-3b-|


  E  E  E  E  E  S  S S S E     E  E  Q    Q    E  E     Q    Q    Q    E  E   
-----------------------------|------------------------|-----------------------|
-----------------------------|------------------------|-----------------------|
-----------------------------|------------------------|-----------------------|
-----------------------------|------------------------|-----------------------|
--------7--------7p-5--------|--5--5---------------9--|--L-----------------8--|
--L--0-----0----------6-5-0--|--3--3---------------7--|--L-----------------6--|


  Q    Q    Q    E  E     E  E  E  E  E  E  E  E     E  E  Q    Q    E  E     Q    Q    Q    E  E   
-----------------------|--------------------------|------------------------|-----------------------|
-----------------------|--------------------------|------------------------|-----------------------|
-----------------------|--------------------------|------------------------|-----------------------|
-----------------------|--------------5--4-----4--|------------------------|-----------------------|
--L--------------------|--------------------7-----|--5--5---------------9--|--L-----------------3--|
--L-----------------0--|--L--5--6--7--------------|--3--3---------------7--|--L-----------------1--|


                                                               PM PM PM PM PM PM  
  E  E  E  E  E  E  E  E     E  E  E  E  E  E  E   S S    Q    E  E  E  E  E  E   
--------------------------|----------------------------|-------------------------|
--------------------------|----------------------------|-------------------------|
--------------------------|-----4-----4--L--4--4\------|-------------------------|
--------------------------|-----2-----2--L--2--2\------|-------------------------|
--L--3--3--3--3--3--L--2--|--L--------2--L-------------|--2----2--2--2--2--2--2--|
--L--1--1--1--1--1--L--0--|--L--------0--L---------0-0-|--0----0--0--0--0--0--0--|


  PM PM PM PM PM PM PM PM    PM PM PM PM PM PM PM                                
  E  E  E  E  E  E  E  E     E  E  E  E  E  E  E  E     E  E  E  E  E  E  E  E   
--------------------------|--------------------------|--------------------------|
--------------------------|--------------------------|--------------------------|
--------------------------|--------------------------|--------------------------|
--------------------------|--------------------------|--------------------------|
--2--2--2--2--2--2--2--2--|--2--2--2--2--2--2--2--7--|-----2-----7-----2-----2--|
--0--0--0--0--0--0--0--0--|--0--0--0--0--0--0--0--5--|-----0-----5-----0-----0--|


        PM PM PM PM PM PM    PM PM PM PM PM PM PM PM    PM PM PM PM PM PM PM     
  E  E  E  E  E  E  E  E     E  E  E  E  E  E  E  E     E  E  E  E  E  E  E  E   
--------------------------|--------------------------|--------------------------|
--------------------------|--------------------------|--------------------------|
--------------------------|--------------------------|--------------------------|
--------------------------|--------------------------|-----------------------7--|
--7--7--7--7--7--7--7--7--|--7--7--7--7--7--7--7--7--|--7--7--7--7--7--7--7--5--|
--5--5--5--5--5--5--5--5--|--5--5--5--5--5--5--5--5--|--5--5--5--5--5--5--5-----|


                                  PM PM PM PM PM PM    PM PM PM PM            
  E  E  E  E  E  E  E  E     Q    E  E  E  E  E  E     E  E  E  E  H          
--------------------------|-------------------------|------------------------|
--------------------------|-------------------------|------------------------|
--------------------------|-------------------------|------------------------|
-----------7--------------|--7----7--7--7--7--7--7--|--7--7--7--7--7\--------|
-----7-----5-----7-----7--|--5----5--5--5--5--5--5--|--5--5--5--5--5\--------|
-----5-----------5-----5--|-------------------------|------------------------|


  E  E  E  E  E  E  E  E     E  E  E  E  Q     Q        E  E  E  E  E  E  E  E   
--------------------------|--------------------------|--------------------------|
--------------------------|--------------------------|--------------------------|
--------------------------|--------------------------|--------------------------|
--7--7--7--6--6--6--5--5--|--5--4--4--4--3-----------|-----------2--5--2--------|
--5--5--5--4--4--4--3--3--|--3--2--2--2--1-----------|--------5-----------5-----|
--------------------------|-------------------12\----|--0--0-----------------0--|


  E  E  E  E  E  E  E  E     E  E  E  E  E  E  E  E     E  E  E  E  E  E  E  E   
--------------------------|--------------------------|--------------------------|
--------------------------|--------------------------|--------------------------|
--------------------------|--------------------------|--------------------------|
-----------2--5--2--------|-----------2--5--2--------|--------------5--4-----4--|
--------4-----------4-----|--------3-----------3-----|--------------------7-----|
--L--0-----------------0--|--L--0-----------------0--|--L--5--6--7--------------|


  PM PM PM PM PM PM PM       PM PM PM PM PM PM PM       PM PM PM PM PM PM PM     
  E  E  E  E  E  E  E  E     E  E  E  E  E  E  E  E     E  E  E  E  E  E  E  E   
--------------------------|--------------------------|--------------------------|
--------------------------|--------------------------|--------------------------|
--------------0--------0--|--------------0--------0--|--------------0-----------|
-----------2-----2-----2--|-----------2-----2-----2--|-----------2-----2--------|
--------5-----------5-----|--------4-----------4-----|--------3-----------3-----|
--0--0--------------------|--0--0--------------------|--0--0-----------------0--|


                             PM PM PM PM PM PM PM       PM PM PM PM PM PM PM     
  E  E  E  E  E  E  E  E     E  E  E  E  E  E  E  E     E  E  E  E  E  E  E  E   
--------------------------|--------------------------|--------------------------|
--------------------------|--------------------------|--------------------------|
--------------------------|--------------0--------0--|--------------0--------0--|
--------------5--4-----4--|-----------2-----2-----2--|-----------2-----2-----2--|
--------------------7-----|--------5-----------5-----|--------4-----------4-----|
--L--5--6--7--------------|--0--0--------------------|--0--0--------------------|


  PM PM PM PM PM PM PM                                        PM PM               
  E  E  E  E  E  E  E  E     E  E  E  E  E  E  E  E     E  E  E  E  E  E   E  E   
--------------------------|--------------------------|---------------------------|
--------------------------|--------------------------|---------------------------|
--------------0-----------|--------------------------|--------------5--5~--L--5--|
-----------2-----2--------|--------------5--4-----4--|--2--2--------5--5~--L--5--|
--------3-----------3-----|--------------------7-----|--0--0--3--0---------------|
--0--0-----------------0--|--L--5--6--7--------------|---------------------------|


        PM PM                      PM PM                PM                       
  E  E  E  E  E  E  E  E     E  E  E  E  E  E  E  E     E  E  E  E  E  E  E  E   
--------------------------|--------------------------|--------------------------|
--------------6--6--6--6--|--------------------------|--------------------------|
--------------5--5--5--5--|--------------5--5--5--5--|-----------------------2--|
--2--2--------3--3--3--3--|--2--2--2-----5--5--5--5--|-----2-----2--L--2-----0--|
--0--0--3--0--------------|--0--0--0--0--------------|--0--0-----0--L--0--------|
--------------------------|--------------------------|--------------------------|


     PM PM PM                   PM PM PM                                        
  E  E  E  E  E  E  E  E     E  E  E  E  E  E  E  E     Q    E  E  E  E  E  E   
--------------------------|--------------------------|-------------------------|
--------------------------|--------------6--6--6-----|-------5--5--5-----5-----|
--2-----------5--5--5--5--|--2-----------3--3--3-----|--5----5--5--5--5--5--5--|
--0--0--3--0--3--3--3--3--|--0--0--3--0-----------5--|--5----5--5--5--5--5--5--|
--------------------------|--------------------------|--3----3--3--3--3--3--3--|
--------------------------|--------------------------|-------------------------|


                                   PM PM                      PM PM              
  E  E  E  E  E  E  E  E     E  E  E  E  E  E  E  E     E  E  E  E  E  E  E  E   
--------------------------|--------------------------|--------------------------|
--------------------------|--------------------------|--------------6--6--6--6--|
-----5--L-----------------|--------------5--5--L--5--|--------------5--5--5--5--|
--5--5--L--5--L--5--5-----|--2--2--------5--5--L--5--|--2--2--------3--3--3--3--|
--3--3--L--3--L--3--3--0--|--0--0--3--0--------------|--0--0--3--0--------------|
--------------------------|--------------------------|--------------------------|


        PM PM                PM                            PM    PM              
  E  E  E  E  E  E  E  E     E  E  E  E  E  E  E  E     E  E  E  E  Q     E  E   
--------------------------|--------------------------|--------------------------|
--------------------------|--------------------------|--------6-----6~----6--6--|
--------------5--5--5--5--|-----------------------2--|--2-----5-----5~----5--5--|
--2--2--------5--5--5--5--|-----2-----2--L--2-----0--|--0--0-----0--------------|
--0--0--3--0--------------|--0--0-----0--L--0--------|--------------------------|
--------------------------|--------------------------|--------------------------|


  PM PM    PM       PM PM         PM PM PM PM PM PM                      PM PM  
  E  E  E  E  Q     E  E     Q    E  E  E  E  E  E     E  E  E  E  E  E  E  E   
--------------------------|-------------------------|--------------------------|
--------6-----6~----------|-------------------------|--------------------------|
--2--2--5-----5~----------|--5----------------------|-----5--L-----------------|
--0--0-----0--3~----3--5--|--5----5--5--5--5--5--5--|--5--5--L--5--L--5--------|
--------------------------|--3----3--3--3--3--3--3--|--3--3--L--3--L--3--3--0--|
--------------------------|-------------------------|--------------------------|


  E  E  E  E  E  E  E  E     E  E  E  E  Q     Q        E   E  E  E  E  S  S S S S S   
--------------------------|--------------------------|--------------------------------|
--------------------------|--------------------------|--------------------------------|
--------------------------|--------------------------|--------------------------------|
--7--7--7--6--6--6--5--5--|--5--4--4--4--3-----------|--------------------------------|
--5--5--5--4--4--4--3--3--|--3--2--2--2--1-----------|---------7--------7p-5----------|
--------------------------|-------------------12\----|--3b--0-----0----------6-5-0-3b-|

  
  E  E  E  E  H                                          
-------------------------------------------------------||
-------------------------------------------------------||
-------------------------------------------------------||
-------------------------------------------------------||
--------7----------------------------------------------||
--L--0-----0-------------------------------------------||



Lead - primary

m.25
                      W                                                       
                                                              |--3--|         
  W                   H.           S E.     E   E  H          S  S  S  S   S  
-------------------|---------------------|-----------------------------------|
-------------------|---------------------|-----------------------------------|
-------------------|---------------------|-----------------------------------|
-------------------|---------------------|-----------------------------------|
-------------------|--7------------L-7---|----------------------------12h-13-|
-------------------|---------------------|--7\--1--L/--------12-12-15--------|


                                                               W                            
   |---3---|   |---3---|                                                                    
   E   E   E   E   E   E    Q      E.    S      H.             E   E      W                 
--------------------------------------------|--------------------------|-------------------|
--------------------------------------------|--------------------------|-------------------|
--------------12----------------------------|--------------------------|-------------------|
------12--14------14--12~---L~-----L~---14~-|---L~-------------L---L\--|-------------------|
--14----------------------------------------|--------------------------|-------------------|
--------------------------------------------|--------------------------|-------------------|


m.66                                                                                |---3---|  
  W                   W                   W                   H        Q    E   S   S   S  
-------------------|-------------------|-------------------|-------------------15p-12h-15-|
-------------------|-------------------|-------------------|------------------------------|
-------------------|-------------------|-------------------|------------------------------|
-------------------|-------------------|-------------------|------------------------------|
-------------------|-------------------|-------------------|------------------------------|
-------------------|-------------------|-------------------|------------------------------|


   T               T               T                T               
                                         |---3---|       |---3---|  
   S    S   S   S  S    S   S   S  E     S   S   S  E    S   S   S  
--17br--Lp-15p-12-17br--Lp-15p-12-17br---Lp-12h-15-17b--12h-15p-12-|
-------------------------------------------------------------------|
-------------------------------------------------------------------|
-------------------------------------------------------------------|
-------------------------------------------------------------------|
-------------------------------------------------------------------|


   T           T                                  \1/      NH    \1/   NH    \1/   NH  \1/        
   T   S   T   T   T   S   E    E    Q      E     E        E     E     E     E     E   E   Q      
--18p-12h-15h-19p-12h-15b-15b--12~-------------------|--------<>12--<>12--<>12--<>12--24--24~----|
------------------------------------15b-----L--<>12--|--<>12-------------------------------------|
-----------------------------------------------------|-------------------------------------------|
-----------------------------------------------------|-------------------------------------------|
-----------------------------------------------------|-------------------------------------------|
-----------------------------------------------------|-------------------------------------------|


   W                                                                                          
                           |--3--|                                                            
   H         E    E    E   S  S  S      E  E  E  E  E  E  E  E      E  E  E  E   E  E  E  E   
---L-------------------------------|-------------8--L------------|---------------------------|
-----------------(0)---------------|-------------8--L--------7~--|--L--------6~--L--------5--|
-----------------------------------|-------5--L-----------5------|--------5------------5-----|
------------19\--------------------|--5g7--------------7---------|-----7------------7--------|
------------19\-------15\--5s-6s-7-|-----------------------------|---------------------------|
----------------------15\----------|-----------------------------|---------------------------|


                                                                      |---3---|  
  S S S S T  T S S S T  T  S S S S T  T  S S    S E.  Q     Q      E  S   S   S  
---------------------------------------------|----------------------------------|
--5-6-8-5-6p-5---5---------------------------|----------------------------------|
---------------7---7-4h-5p-4-----------------|-------------------6g9--9h-10h-12-|
-----------------------------7-7-L-3h-5p-3---|----------------------------------|
-------------------------------------------7-|--8-7---L~----7-------------------|
---------------------------------------------|----------------------------------|


                             |----3---|  |--3--|         |--3--|  
   S    S  S  S  E     S  S  S    S   S  S  S  S     E   S  S  S  
-----------------------------------------------------------------|
-----------------------------------------------------------------|
--12br--L-10----12br-----10-12br--Lp-10----10----14g16--10----12-|
-------------12-------12----------------12----12-----------12----|
-----------------------------------------------------------------|
-----------------------------------------------------------------|


              T             T         T                     TP      TP        TP    
   S   T   T  S   T   T  T  S  T   T  T  S E  E   Q         Q.      E   Q     Q     
--------------------------------------------------3s----|--14------13---L----12----|
--------------------------------------------------------|--------------------------|
--12p-10h-12-14p-10h-12-10-12p-7h-10-12p-7-L--L\--3s----|--14------13---L----12----|
--------------------------------------------------------|--------------------------|
--------------------------------------------------------|--------------------------|
--------------------------------------------------------|--------------------------|


       TP                      \1/                                                       
   E   E   Q     Q     Q       W                   W                   W                 
---L--11---L----10\---------|-------------------|-------------------|-------------------|
----------------------------|-------------------|-------------------|-------------------|
---L--11---L----10\---------|-------------------|-------------------|-------------------|
----------------------------|-------------------|-------------------|-------------------|
----------------------------|-------------------|-------------------|-------------------|
----------------------------|--0----------------|--L----------------|-------------------|

m.100

  W                   H        Q    E  E     H.           E  E     H.            E  E   
-------------------|----------------------|---------------------|----------------------|
-------------------|----------------------|---------------------|----------------------|
-------------------|----------------------|------------------7--|--L~------------L-----|
-------------------|-------------------7--|--L------------L-----|-------------------6--|
-------------------|----------------------|---------------------|----------------------|
-------------------|----------------------|---------------------|----------------------|


  H.            E  E     E  E  E  E   E   E   Q       E   S    S  E   E   H          
----------------------|----------------------------|--------------------------------|
----------------------|----------------------------|--------------------------------|
--9~------------9--9--|--9--9--7--9~--L~--L\-------|-----12br--L-10-----------------|
----------------------|----------------------------|-----------------12---L~--------|
----------------------|----------------------------|--------------------------------|
----------------------|----------------------------|--------------------------------|


  |---3---|                                                        
  E   E   E   H          Q        Q    E   S  S S  S  E  S  S E    
-------------------------------|----------------------------------|
-------------------------------|-----------8p-5-------------------|
-----10-----------------12\----|-------7b-------7b-7p-5--5h-7-7b--|
---------12--12~--------12\----|----------------------------------|
-------------------------------|----------------------------------|
-------------------------------|----------------------------------|


  Q    E      E      E      E      E      E       Q     Q    H           W                 
-----------------------------------------------|----------------------|-------------------|
-----------------------------------------------|----------------------|-------------------|
--L----7pb--<>7pb--<>7pb--<>7pb--<>7pb--<>7pb--|--L\------------------|-------------------|
-----------------------------------------------|----------------------|-------------------|
-----------------------------------------------|----------------------|-------------------|
-----------------------------------------------|----------------------|-------------------|

   
  W                   W                                          
-------------------|-------------------------------------------||
-------------------|-------------------------------------------||
-------------------|-------------------------------------------||
-------------------|-------------------------------------------||
-------------------|-------------------------------------------||
-------------------|-------------------------------------------||



Lead - secondary

m.55
  W                   W                   H         S  S S S Q       W                 
-------------------|-------------------|--------------------------|-------------------|
-------------------|-------------------|--------------------------|-------------------|
-------------------|-------------------|------------x--x-7-7-7----|-------------------|
-------------------|-------------------|--------------------------|-------------------|
-------------------|-------------------|--------------------------|-------------------|
-------------------|-------------------|--------------------------|-------------------|


  W                   W                   W                   Q     E   E   Q       E   E   
-------------------|-------------------|-------------------|-------------------------------|
-------------------|-------------------|-------------------|------------8------------------|
-------------------|-------------------|-------------------|-------10b-----10b~-----L\-----|
-------------------|-------------------|-------------------|-------------------------------|
-------------------|-------------------|-------------------|-------------------------------|
-------------------|-------------------|-------------------|-------------------------------|


  Q     E     E   Q      E   E     Q     Q       E    E   Q       E   E   E   E   E   E   E    E   
--------------------------------|------------------------------|----------------------------------|
-------------12-----------------|-------11~-----11----L\-------|----------------------------------|
-------14b~------14b-----L\-----|-------13b~----13b---L\-------|-----------------12--11-----------|
--------------------------------|------------------------------|-------------------------14s--16--|
--------------------------------|------------------------------|-----12--13--14-------------------|
--------------------------------|------------------------------|----------------------------------|


  Q     E   E   Q       E   E     Q     E     E   Q       E   E   
-------------------------------|---------------------------------|
------------8------------------|-------------12------------------|
-------10b-----10b~-----L\-----|-------14b~------14b~-----L\-----|
-------------------------------|---------------------------------|
-------------------------------|---------------------------------|
-------------------------------|---------------------------------|


  Q     Q      E    E   E     E       E   E   E    E   E    E    Q         W                 
-------13----------13--12~---12---|---L--12-------12--12---12---12~-----|-------------------|
-------16b----16b------16b~--15b--|---L------15b------15b--15b--15b~----|-------------------|
----------------------------------|-------------------------------------|-------------------|
----------------------------------|-------------------------------------|-------------------|
----------------------------------|-------------------------------------|-------------------|
----------------------------------|-------------------------------------|-------------------|


  W                   W                   W                     E  E  E  E  E  E  E  E   
-------------------|-------------------|-------------------|-------------8--L--------7--|
-------------------|-------------------|-------------------|-------------8--L-----------|
-------------------|-------------------|-------------------|-------5--L-----------5-----|
-------------------|-------------------|-------------------|--5g7--------------7--------|
-------------------|-------------------|-------------------|----------------------------|
-------------------|-------------------|-------------------|----------------------------|


  E  E  E  E  E  E  E  E     W                   W                   W                 
--L--------5--L-----------|-------------------|-------------------|-------------------|
-----------------------5--|-------------------|-------------------|-------------------|
--------5-----------5-----|-------------------|-------------------|-------------------|
-----7-----------7--------|-------------------|-------------------|-------------------|
--------------------------|-------------------|-------------------|-------------------|
--------------------------|-------------------|-------------------|-------------------|


m.109
                       TP      TP        TP           TP  TP               
  W                    Q.      E   Q     Q        E   E   Q     Q    Q     
-------------------|--14------13---L----12----|---L--11--11----10----9----|
-------------------|--------------------------|---------------------------|
-------------------|--14------13---L----12----|---L--11--11----10----9----|
-------------------|--------------------------|---------------------------|
-------------------|--------------------------|---------------------------|
-------------------|--------------------------|---------------------------|


  Transcribed by Isaias Garcia (TexasFury)                       
  W                                           W                  
-------------------------------------------|-------------------||
-------------------------------------------|-------------------||
-------------------------------------------|-------------------||
-------------------------------------------|-------------------||
-------------------------------------------|-------------------||
-------------------------------------------|-------------------||




Duration Legend
---------------
W - whole
H - half
Q - quarter
E - 8th
S - 16th
T - 32nd
X - 64th
. - note dotted
|-n-|  - n-tuplets


Tablature Legend
----------------
L - tied note
x - dead note
g - grace note
(n) - ghost note
> - accentuded note
NH - natural harmonic
AH - artificial harmonic
TH - tapped harmonic
SH - semi harmonic
PH - pitch harmonic
h - hammer on
p - pull off
b - bend
br - bendRelease
pb - preBend
pbr - preBendRelease
brb - bendReleaseBend
\n/ - tremolo bar dip
\n - tremolo bar dive
-/n - tremolo bar Release up
/n\ - tremolo bar inverted dip
/n - tremolo bar return
-\n - tremolo bar Release down
S - shift slide
s - legato slide
/ -  slide into from below or out of upwards
\ -  slide into from above or out of downwards
~ - vibrato
W - wide vibrato
tr - trill
TP - tremolo picking
T - tapping
S - slap
P - pop
comments
We did not receive enough feedback on this tab! Please rate:
1 2 3 4 5
I want to post or [tab]
guest
You may want to rate the tab now too:
select rating
Please do not post tabs as comments. Select "correction" instead!