Oops, an error
Loading. Please wait.

Deliver Us Tab

ver1
ver1

Solo

Whole song

Interactive

More versions @911Tabs.com
6,374 views 1 this week
3 commentsread comments
1 2 3 4 5
excellent!
x 4
Autoscroll
+/-
esc
set tempo
stop
Contributor
Tuning
C G C F A D
Hey! There's an official Ultimate Guitar app which is ideal
for learning songs when you're away from computer. Get the app
WARNING: You are trying to view
                                    content from Ultimate-Guitar.com
                                    in an unauthorized application,
                                    which is prohibited.

                                    Please use an official Ultimate
                                    Guitar Tabs application for iPhone,
                                    iPad or Android to access legitimate
                                    chords, guitar, bass, and drum tabs
                                    from Ultimate-Guitar.com database.

                                    Type "ultimate guitar tabs" in Apple
                                    App Store's or Android Market's
                                    search to find the application.
#----------------------------------PLEASE NOTE---------------------------------#
#This file is the author's own work and represents their interpretation of the #
#song. You may only use this file for private study, scholarship, or research. #
#------------------------------------------------------------------------------#

here's what i can get
suggestions/comments: ewlord-1492@hotmail.com


most of it's there
but it was a really hard song to tab
so please rate and comment

and if anyone could figure out the harmony in the solo
that'd be awesome


Gtr I (C G C F A D) - 'Lead'
Gtr II (C G C F A D) - 'Rhythm'
Gtr III (C G C F A D) - 'other'

Intro: Guitar 2 uses WAH

  Q=218
 4/4
  Gtr I
  E E E E E E E E  E  E E E E E S S E E E E E E E E E  E  E E E E E S S E
|-------------------------------------------------------------------------|
|-------------------------------------------------------------------------|
|-------------------------------------------------------------------------|
|-7---7---8---7----5--7---7-----------7---7---8---7----7--5---5-----------|
|---5---5---5---5-------5---5-5-5-5-5---4---4---4---4-------4---4-4-4-4-4-|
|-------------------------------------------------------------------------|
|
| Gtr II
| W               +W                  W               +W
|-------------------------------------------------------------------------|
|-------------------------------------------------------------------------|
|-------------------------------------------------------------------------|
|-3---------------(3)-----------------2---------------(2)-----------------|
|-------------------------------------------------------------------------|
|-------------------------------------------------------------------------|


  E E E E E E E E  E  E E E E E S S E E E E E E E E E E  E  E E E E S S E
|--------------------------------------------------------------------------|
|--------------------------------------------------------------------------|
|--------------------------------------------------------------------------|
|-3---3---5---3----5--3---2-----------2---2---3---2---------8-7------------|
|---1---1---1---1-------1---1-1-1-1-1---0---0---0---0-7--4------4-4-4-4-4--|
|--------------------------------------------------------------------------|
|
| W               +W                  W                 +W
|--------------------------------------------------------------------------|
|--------------------------------------------------------------------------|
|--------------------------------------------------------------------------|
|--------------------------------------------------------------------------|
|-5---------------(5)-----------------4-----------------(4)----------------|
|--------------------------------------------------------------------------|


Verse Riff:

    E E E E E E E E   E E E E E E S S E
||------------------|-------------------|
||o-----------------|-------------------|
||------------------|-------------------|
||--7---7---8---7---|-5-7---7-----------|
||o---5---5---5---5-|-----5---5-5-5-5-5-|
||------------------|-------------------|
|
|   E E E E E E E E   E E E E E E S S E
||------------------|-------------------|
||o-----------------|-------------------|
||------------------|-------------------|
||--7---7---8---7---|-5-7---7-----------|
||o---5---5---5---5-|-----5---5-5-5-5-5-|
||------------------|-------------------|


  E E E E E E E E   E E E E E E S S E
|-----------------|---------------------||
|-----------------|--------------------o||
|-----------------|---------------------||
|-7---7---8---7---|-7-5---5-------------||
|---4---4---4---4-|-----4---4-4-4-4-4--o||
|-----------------|---------------------||
|
| E E E E E E E E   E E E E E E S S E
|-----------------|---------------------||
|-----------------|--------------------o||
|-----------------|---------------------||
|-7---7---8---7---|-7-5---5-------------||
|---4---4---4---4-|-----4---4-4-4-4-4--o||
|-----------------|---------------------||


  E E E E E E E E  E  E E E E E S S E E E E E E E E E E E E E E E S S E
|------------------------------------------------------------------------|
|------------------------------------------------------------------------|
|------------------------------------------------------------------------|
|---------5---------------------------2---2---3---2-------8-7------------|
|-8---8-------8----8--7---7---------------------------4-4-----4-4-4-4-4--|
|---5---5---5---5-------5---5-5-5-5-5---3---3---3---3--------------------|
|
| W               +W                  W               W
|------------------------------------------------------------------------|
|------------------------------------------------------------------------|
|------------------------------------------------------------------------|
|------------------------------------------------------------------------|
|-5---------------(5)-----------------3---------------4------------------|
|-5---------------(5)-----------------3---------------2------------------|


Pre-Chorus Riff:

  W        +W          W         +W          W         +W          W         +W
|-----------------------------------------------------------------------------------|
|----------------------8---------(8)---------6---------(6)---------5---------(5)----|
|----------------------7---------(7)---------5---------(5)---------5---------(5)----|
|-7--------(7)---------7---------(7)---------3---------(3)---------2---------(2)----|
|-5--------(5)---------5---------(5)------------------------------------------------|
|-----------------------------------------------------------------------------------|
|
| W        +W         +W         +W         +W         +W         +W         +W
|-----------------------------------------------------------------------------------|
|-----------------------------------------------------------------------------------|
|-----------------------------------------------------------------------------------|
|-----------------------------------------------------------------------------------|
|-0--------(0)--------(0)--------(0)--------(0)--------(0)--------(0)--------(0)----|
|-0--------(0)--------(0)--------(0)--------(0)--------(0)--------(0)--------(0)----|


   W         +W          W          +W          W               +W         H     H     H 
   Q   Q
|------------------------------------------------------------------------------------------------|
|-11--------(11)--------10---------(10)--------11--------------(11)------------------------------|
|-10--------(10)---------7----------(7)---------7---------------(7)--------9----10----12----9-15-|
|--8---------(8)---------7----------(7)---------8---------------(8)------------------------------|
|--------------------------------------------------------------------------7-----8----10-----7-13|
|------------------------------------------------------------------------------------------------|
|
|  W         +W         +W          +W          H     Q     Q   +W         W          +H 
   Q   Q
|-----------------------------------------------------------8---(8)------------------------------|
|------------------------------------------------------------------------------------------------|
|----------------------------------------------------10------------------------------------------|
|------------------------------------------------------------------------------------------------|
|--8---------(8)--------(8)---------(8)---------8----(8)---(8)--(8)--------3----------(3)----3--3|
|--8---------(8)--------(8)---------(8)---------8----(8)---(8)--(8)--------3----------(3)----3--2|


Chorus Riff:

     Q   Q   Q   Q     Q   Q   Q   Q     Q   Q   Q   Q     Q   Q   H
||------------------|-----------------|-----------------|--------------|
||o-----------------|-----------------|-----------------|--------------|
||--14--14--14--14--|-14--14--14--12--|-10--10--10--10--|-10--10--17---|
||------------------|-----------------|-----------------|--------------|
||o-12--12--12--12--|-12--12--12--10--|--8---8---8---8--|--8---8--15---|
||------------------|-----------------|-----------------|--------------|
|
|    Q   Q   Q   Q     Q   Q   Q   Q     Q   Q   Q   Q     Q   Q   H
||------------------|-----------------|-----------------|--------------|
||o-----------------|-----------------|-----------------|--------------|
||------------------|-----------------|-----------------|--------------|
||------------------|-----------------|-----------------|--------------|
||o--0---0---0---0--|--0---0---0---3--|--3---3---3---3--|--3---3--10---|
||---0---0---0---0--|--0---0---0---2--|--3---3---3---3--|--3---3--10---|


  H      Q  Q    +W              Q  Q  Q  Q    Q  Q  Q  Q
|--------------|---------------|-------------|--------------||
|--------------|---------------|-------------|-------------o||
|-9-----10--7--|-(7)-----------|-------------|--------------||
|--------------|---------------|-7-----8-----|-7-----5------||
|-7------8--5--|-(5)-----------|----5-----5--|----5-----5--o||
|--------------|---------------|-------------|--------------||
|
| Q  Q   Q  Q     Q   Q  Q  Q    Q  Q  Q  Q    Q  Q  Q  Q
|--------------|---------------|-------------|--------------||
|--------------|---------------|-------------|-------------o||
|--------------|---------------|-------------|--------------||
|--------------|---------------|-------------|--------------||
|-8--8---8--8--|--8---8--8--8--|-7--7--7--7--|-7--7--3--3--o||
|-8--8---8--8--|--8---8--8--8--|-7--7--7--7--|-7--7--3--2---||


Post Chorus Riff:

  Q  Q  Q  Q    Q  Q  Q  Q    Q  Q  Q  Q    Q   H.
|-------------|-------------|-------------|-----------|
|-------------|-------------|-------------|-----------|
|-------------|-------------|-------------|-----------|
|-------------|-------------|-------------|-----------|
|-7--0--7--0--|-8--0--7--0--|-0--7--0--8--|-0--12-----|
|-7--0--7--0--|-8--0--7--0--|-0--7--0--8--|-0--11-----|
|
| Q  Q  Q  Q    Q  Q  Q  Q    Q  Q  Q  Q    Q   H.
|-------------|-------------|-------------|-----------|
|-------------|-------------|-------------|-----------|
|-------------|-------------|-------------|-----------|
|-------------|-------------|-------------|-----------|
|-7--0--7--0--|-8--0--7--0--|-0--7--0--8--|-0--12-----|
|-7--0--7--0--|-8--0--7--0--|-0--7--0--8--|-0--11-----|


Play Verse again
but play this little fill at the end:

   |--3--|  |--3--|  |--3--|  |--3--|    |--3--|  |--3--|  |--3--|  |--3--|
   E  E  E  E  E  E  E  E  E  E  E  E    E  E  E  E  E  E  E  E  E  E  E  E
|-10--8-------------------------------|----------------------------------------|
|-------11-10--8-----8----------------|-10--8-----8----------------------------|
|----------------10----10--9-10--9--7-|-------10----10--9-10--9--7-------------|
|-------------------------------------|----------------------------10--8--7----|
|-------------------------------------|----------------------------------------|
|-------------------------------------|----------------------------------------|
|
|  |--3--|  |--3--|  |--3--|  |--3--|    |--3--|  |--3--|  |--3--|  |--3--|
|  E  E  E  E  E  E  E  E  E  E  E  E    E  E  E  E  E  E  E  E  E  E  E  E
|-------------------------------------|----------------------------------------|
|-18-17-15-13-------------------------|-13-------------------------------------|
|-------------15-14-15-14-12-14-12----|----15-14-15-14-12-14-12----------------|
|----------------------------------15-|-------------------------15-14-12-------|
|-------------------------------------|----------------------------------15----|
|-------------------------------------|----------------------------------------|


Then the Pre-chorus again:
Then the Chorus again:

Now the solo:
(i think it's pretty close)

  Q=180
   |--3--|  |--3--|  |--3--|  |--3--|    |--3--|  |--3--|  |--3--|
   E  E  E  E  E  E  E  E  E  E  E  E    E  E  E  E  E  E  E  E  E  Q
|-------------13-12-------------------|-12-13-12----12-----------------|
|----------15----------------------15-|----------13----13--------------|
|-------14----------14----------14----|----------------------14--------|
|-12-15----------------15-12-15-------|-------------------15----15-14--|
|-------------------------------------|--------------------------------|
|-------------------------------------|--------------------------------|
|
|           |--3--|  |--3--|
|  Q        E  E  E  E  E  E  Q          W
|-------------------------------------|--------------------------------|
|-------------------------------------|--------------------------------|
|-------------------------------------|--------------------------------|
|--7--------x--x--x--7----------------|--5-----------------------------|
|--5--------x--x--x--5----------------|--3-----------------------------|
|-------------------------------------|--------------------------------|


   |--3--|  |--3--|  |--3--|  |--3--|            |-3--|
   E  E  E  E  E  E  E  E  E  E  E  E    Q   Q   E  E E   Q
|-------------10----------------------|-----------------------|
|----------11----11----------------11-|-----------------[13]--|
|-------10----------10----------10----|---------12-10-9-------|
|----12----------------12----12-------|-12--11----------------|
|-13----------------------13----------|-----------------------|
|-------------------------------------|-----------------------|
|
|           |--3--|  |--3--|
|  Q        E  E  E  E  E  E  Q          H       H
|-------------------------------------|-----------------------|
|-------------------------------------|-----------------------|
|-------------------------------------|-----------------------|
|--3--------x--x--x--3----------------|--2-------2------------|
|--1--------x--x--x--1----------------|--0-------4------------|
|-------------------------------------|-----------------------|


   |--3--|  |--3--|  |--3--|  |--3--|    |--3--|  |--3--|  |--3--|
   E  E  E  E  E  E  E  E  E  E  E  E    E  E  E  E  E  E  E  E  E  Q
|-------------13-12-------------------|-12-13-12----12--------------------|
|----------15----------------------15-|----------13----13-----------------|
|-------14----------14----------14----|----------------------14-----------|
|-12-15----------------15-12-15-------|-------------------15----15-14-----|
|-------------------------------------|-----------------------------------|
|-------------------------------------|-----------------------------------|
|
|           |--3--|  |--3--|  |--3--|             |--3--|  |--3--|  |-3-|
|  Q        E  E  E  E  E  E  E  E  E    Q        E  E  E  E  E  E  E E E
|-------------------------------------|-----------------------------------|
|-------------------------------------|-----------------------------------|
|-------------------------------------|-----------------------------------|
|--7----------------------------------|--5--------------------------------|
|--5--------5--5--5--5--5--5--5--5--5-|--3--------3--3--3--3--3--3--3-3-3-|
|-------------------------------------|-----------------------------------|


   |--3--|  |--3--|  |--3--|  |--3--|    |--3--|  |--3--|  |--3--|
   E  E  E  E  E  E  E  E  E  E  E  E    E  E  E  E  E  E  E  E  E  Q
|-------------10----------------------|--------------------------------------|
|----------11----11----------------11-|--------------------------------------|
|-------10----------10----------10----|-------------------------15-14--------|
|----12----------------12----12-------|-12-11-12-14-12-11-12-14--------------|
|-13----------------------13----------|--------------------------------------|
|-------------------------------------|--------------------------------------|
|
|           |--3--|  |--3--|  |--3--|             |--3--|           |-3-|
|  Q        E  E  E  E  E  E  E  E  E    Q        E  E  E  Q        E E E
|-------------------------------------|--------------------------------------|
|-------------------------------------|--------------------------------------|
|-------------------------------------|--------------------------------------|
|--3----------------------------------|--2-----------------2-----------------|
|--1--------1--1--1--1--1--1--1--1--1-|--0--------0--0--0--4--------4-4-4----|
|-------------------------------------|--------------------------------------|


   |--3--|  |--3--|  |--3--|  |--3--|    |--3--|  |--3--|  |--3--|
   E  E  E  E  E  E  E  E  E  E  E  E    E  E  E  E  E  E  E  E  E  Q
|-------------13-12-------------------|-12-13-12----12--------------------|
|----------15----------------------15-|----------13----13-----------------|
|-------14----------14----------14----|----------------------14-----------|
|-12-15----------------15-12-15-------|-------------------15----15-14-----|
|-------------------------------------|-----------------------------------|
|-------------------------------------|-----------------------------------|
|
|           |--3--|  |--3--|  |--3--|             |--3--|  |--3--|  |-3-|
|  Q        E  E  E  E  E  E  E  E  E    Q        E  E  E  E  E  E  E E E
|-------------------------------------|-----------------------------------|
|-------------------------------------|-----------------------------------|
|-------------------------------------|-----------------------------------|
|--7----------------------------------|--5--------------------------------|
|--5--------5--5--5--5--5--5--5--5--5-|--3--------3--3--3--3--3--3--3-3-3-|
|-------------------------------------|-----------------------------------|


   |--3--|  |--3--|  |--3--|  |--3--|    |--3--|  |--3--|  |--3--|  |--3--|
   E  E  E  E  E  E  E  E  E  E  E  E    E  E  E  E  E  E  E  E  E  E  E  E
|-------------10----------------------|----------------------------------------|
|----------11----11----------------11-|----------------------------------------|
|-------10----------10----------10----|-------------------------12-14-15-12----|
|----12----------------12----12-------|-------------------11-14----------------|
|-13----------------------13----------|----------10-12-13----------------------|
|-------------------------------------|-11-12-14-------------------------------|
|
|           |--3--|  |--3--|  |--3--|          |--3--|        |--3--|
|  Q        E  E  E  E  E  E  E  E  E    Q     E  E  E  Q     E  E  E
|-------------------------------------|----------------------------------------|
|-------------------------------------|----------------------------------------|
|-------------------------------------|----------------------------------------|
|--3----------------------------------|--2--------------2----------------------|
|--1--------1--1--1--1--1--1--1--1--1-|--0-----0--0--0--4-----4--4--4----------|
|-------------------------------------|----------------------------------------|


   |--3--|  |--3--|  |--3--|  |--3--|    |--3--|  |--3--|  |--3--|
   E  E  E  E  E  E  E  E  E  E  E  E    E  E  E  E  E  E  E  E  E  Q
|-------------10----------------------|----10-----------------------------|
|----------11----11-------------------|-11----11----11--------------------|
|----------------------------------10-|----------10----10----10-----------|
|-------12----------12----------12----|-------------------12----12--------|
|-10-13----------------13-10-13-------|----------------------------12-----|
|-------------------------------------|-----------------------------------|
|
|           |--3--|  |--3--|  |--3--|             |--3--|  |--3--|  |-3-|
|  Q        E  E  E  E  E  E  E  E  E    Q        E  E  E  E  E  E  E E E
|-------------------------------------|-----------------------------------|
|-------------------------------------|-----------------------------------|
|-------------------------------------|-----------------------------------|
|-------------------------------------|-----------------------------------|
|--5----------------------------------|--3--------------------------------|
|--5--------5--5--5--5--5--5--5--5--5-|--3--------3--3--3--3--3--3--3-3-3-|


  |-3-| |-3-| |-3-| |-3-|   |-3-| |-3-| |-3-|
  E E E E E E E E E E E E   E E E E E E E E E Q
|---------3---------------|----------------------------|
|-------4---4-----------4-|-------------------7--------|
|-----3-------3-------3---|-----------------7----------|
|---5-----------5---5-----|-------------8-7------------|
|-6---------------6-------|-6-5-6-8-6-5----------------|
|-------------------------|----------------------------|
|
|       |-3-| |-3-| |-3-|         |-3-|       |-3-|
| Q     E E E E E E E E E   Q     E E E Q     E E E
|-------------------------|----------------------------|
|-------------------------|----------------------------|
|-------------------------|----------------------------|
|-------------------------|----------------------------|
|-1-----------------------|-0-----------4--------------|
|-1-----1-1-1-1-1-1-1-1-1-|-0-----0-0-0-4-----4-4-4----|


   |--3--|  |--3--|  |--3--|  |--3--|    |--3--|  |--3--|  |--3--|  |--3--|
   E  E  E  E  E  E  E  E  E  E  E  E    E  E  E  E  E  E  E  E  E  E  E  E
|-------------10----------------------|----10----------------------15-11----|
|----------11----11-------------------|-11----11----11----------11-------11-|
|----------------------------------10-|----------10----10----12-------------|
|-------12----------12----------12----|-------------------13----------------|
|-10-13----------------13-10-13-------|-------------------------------------|
|-------------------------------------|-------------------------------------|
|
|           |--3--|  |--3--|  |--3--|             |--3--|  |--3--|  |--3--|
|  Q        E  E  E  E  E  E  E  E  E    Q        E  E  E  E  E  E  E  E  E
|-------------------------------------|-------------------------------------|
|-------------------------------------|-------------------------------------|
|-------------------------------------|-------------------------------------|
|-------------------------------------|-------------------------------------|
|--5----------------------------------|--3----------------------------------|
|--5--------5--5--5--5--5--5--5--5--5-|--3--------3--3--3--3--3--3--3--3--3-|


   |--3--|  |--3--|  |--3--|  |--3--|    |--3--|  |--3--|  |--3--|
   E  E  E  E  E  E  E  E  E  E  E  E    E  E  E  E  E  E  E  E  E  Q
|----------11----------------11-------|----------17----------------22--------|
|-------11----11----------11----11----|-------18----18----------22-----------|
|----12----------12----12----------12-|----17----------17----22--------------|
|-13----------------13----------------|-19----------------24-----------------|
|-------------------------------------|--------------------------------------|
|-------------------------------------|--------------------------------------|
|
|           |--3--|  |--3--|  |--3--|             |--3--|           |-3-|
|  Q        E  E  E  E  E  E  E  E  E    Q        E  E  E  Q        E E E
|-------------------------------------|--------------------------------------|
|-------------------------------------|--------------------------------------|
|-------------------------------------|--------------------------------------|
|-------------------------------------|--------------------------------------|
|--1----------------------------------|--0-----------------4-----------------|
|--1--------1--1--1--1--1--1--1--1--1-|--0--------0--0--0--4--------4-4-4----|


   |--3--|  |--3--|  |--3--|  |--3--|    |--3--|  |--3--|  |--3--|
   E  E  E  E  E  E  E  E  E  E  E  E    E  E  E  E  E  E  E  E  E  Q
|-------------13-12-------------------|-12-13-12----12-----------------|
|----------15----------------------15-|----------13----13--------------|
|-------14----------14----------14----|----------------------14--------|
|-12-15----------------15-12-15-------|-------------------15----15-14--|
|-------------------------------------|--------------------------------|
|-------------------------------------|--------------------------------|
|
|           |--3--|  |--3--|
|  Q        E  E  E  E  E  E  Q          W
|-------------------------------------|--------------------------------|
|-------------------------------------|--------------------------------|
|-------------------------------------|--------------------------------|
|--7--------x--x--x--7----------------|--5-----------------------------|
|--5--------x--x--x--5----------------|--3-----------------------------|
|-------------------------------------|--------------------------------|


   |--3--|  |--3--|  |--3--|  |--3--|    |--3--|  |--3--|  |--3--|
   E  E  E  E  E  E  E  E  E  E  E  E    E  E  E  E  E  E  E  E  E  Q
|-------------10----------------------|---------------------------------|
|----------11----11----------------11-|---------------------------------|
|-------10----------10----------10----|-------------------------15-14---|
|----12----------------12----12-------|-12-11-12-14-12-11-12-14---------|
|-13----------------------13----------|---------------------------------|
|-------------------------------------|---------------------------------|
|
|           |--3--|  |--3--|
|  Q        E  E  E  E  E  E  Q          H                 H
|-------------------------------------|---------------------------------|
|-------------------------------------|---------------------------------|
|-------------------------------------|---------------------------------|
|--3--------x--x--x--3----------------|--2-----------------2------------|
|--1--------x--x--x--1----------------|--0-----------------4------------|
|-------------------------------------|---------------------------------|


   |--3--|  |--3--|  |--3--|  |--3--|    |--3--|  |--3--|  |--3--|  |--3--|
   E  E  E  E  E  E  E  E  E  E  E  E    E  E  E  E  E  E  E  E  E  E  E  E
|-------------------------------------|----------------------------20-------|
|-------------18-17-------------------|-17-18-17----17----------18----18----|
|----------19----------------------19-|----------17----17----19----------19-|
|-------19----------19----------19----|-------------------20----------------|
|-17-20----------------20-17-20-------|-------------------------------------|
|-------------------------------------|-------------------------------------|
|
|           |--3--|  |--3--|  |--3--|             |--3--|  |--3--|  |--3--|
|  Q        E  E  E  E  E  E  E  E  E    Q        E  E  E  E  E  E  E  E  E
|-------------------------------------|-------------------------------------|
|-------------------------------------|-------------------------------------|
|-------------------------------------|-------------------------------------|
|--7----------------------------------|--5----------------------------------|
|--5--------5--5--5--5--5--5--5--5--5-|--3--------3--3--3--3--3--3--3--3--3-|
|-------------------------------------|-------------------------------------|


                                        H.=H
   |--3--|  |--3--|  |--3--|  |--3--|
   E  E  E  E  E  E  E  E  E  E  E  E    Q   Q   Q   Q
|-------------10----------------------|-------------------|
|----------11----11----------------11-|-------------------|
|-------10----------10----------10----|-------------------|
|----12----------------12----12-------|-12--11--12--14----|
|-13----------------------13----------|-------------------|
|-------------------------------------|-------------------|
|
|           |--3--|  |--3--|  |--3--|
|  Q        E  E  E  E  E  E  E  E  E    H       H
|-------------------------------------|-------------------|
|-------------------------------------|-------------------|
|-------------------------------------|-------------------|
|--3----------------------------------|--2-------3--------|
|--1--------1--1--1--1--1--1--1--1--1-|--0-------1--------|
|-------------------------------------|-------------------|


   H     H
|-------------|
|-------------|
|-------15----|
|-15----------|
|-------------|
|-------------|
|
|  H     H
|-------------|
|-------------|
|-------------|
|--6-----8----|
|--4-----5----|
|-------------|


Now the part after the solo
there's alot of stuff goin on that i didn't tab
simply because i dunno what they're doin
but you can figure it out

  Q=148
   W                  +W
|------------------|--------------------|
|------------------|--------------------|
|-14---------------|-(14)---------------|
|------------------|--------------------|
|------------------|--------------------|
|------------------|--------------------|
|
|  W                  +W
|------------------|--------------------|
|------------------|--------------------|
|------------------|--------------------|
|--7---------------|--(7)---------------|
|--5---------------|--(5)---------------|
|------------------|--------------------|
|
| Gtr III
|  E E E E E E E E     E  E E E E E E E
|------------------|--------------------|
|------------------|--------------------|
|------------------|--------------------|
|--7-0-0-7-0-0-7-0-|---5--0-0-5-0-0-5-0-|
|------------------|--------------------|
|------------------|--------------------|


   +W                   +W
|--------------------|--------------------|
|--------------------|--------------------|
|-(14)---------------|-(14)---------------|
|--------------------|--------------------|
|--------------------|--------------------|
|--------------------|--------------------|
|
|  +W                   +W
|--------------------|--------------------|
|--------------------|--------------------|
|--------------------|--------------------|
|--(7)---------------|--(7)---------------|
|--(5)---------------|--(5)---------------|
|--------------------|--------------------|
|
|   E  E E E E E E E     E  E E E E E E E
|--------------------|--------------------|
|--------------------|--------------------|
|--------------------|--------------------|
|---3--0-0-3-0-0-3-0-|---2--0-0-2-0-0-2-0-|
|--------------------|--------------------|
|--------------------|--------------------|


   +W                   +W
|--------------------|--------------------|
|--------------------|--------------------|
|-(14)---------------|-(14)---------------|
|--------------------|--------------------|
|--------------------|--------------------|
|--------------------|--------------------|
|
|  +W                   +W
|--------------------|--------------------|
|--------------------|--------------------|
|--------------------|--------------------|
|--(7)---------------|--(7)---------------|
|--(5)---------------|--(5)---------------|
|--------------------|--------------------|
|
|   E  E E E E E E E     E  E E E E E E E
|--------------------|--------------------|
|--------------------|--------------------|
|--------------------|--------------------|
|---8--0-0-8-0-0-8-0-|---7--0-0-7-0-0-7-0-|
|--------------------|--------------------|
|--------------------|--------------------|


   +W                   +W
|--------------------|--------------------|
|--------------------|--------------------|
|-(14)---------------|-(14)---------------|
|--------------------|--------------------|
|--------------------|--------------------|
|--------------------|--------------------|
|
|  +W                   +W
|--------------------|--------------------|
|--------------------|--------------------|
|--------------------|--------------------|
|--(7)---------------|--(7)---------------|
|--(5)---------------|--(5)---------------|
|--------------------|--------------------|
|
|   E  E E E E E E E     E  E E E E E E E
|--------------------|--------------------|
|--------------------|--------------------|
|--------------------|--------------------|
|---3------3-----3---|---2------2-----2---|
|------1-1---1-1---1-|------3-3---3-3---3-|
|--------------------|--------------------|

Anybody wanna help figure this out?

|-----------------|-----------------|-----------------|-----------------|
|-----------------|-----------------|-----------------|-----------------|
|-----------------|-----------------|-----------------|-----------------|
|-----------------|-----------------|-----------------|-----------------|
|-----------------|-----------------|-----------------|-----------------|
|-----------------|-----------------|-----------------|-----------------|
|
| E E E E E E E E   E E E E E E E E   E E E E E E E E   E E E E E E E E
|-----------------|-----------------|-----------------|-----------------|
|-----------------|-----------------|-----------------|-----------------|
|-----------------|-----------------|-----------------|-----------------|
|-7-0-0-7-0-0-7-0-|-5-0-0-5-0-0-5-0-|-3-0-0-3-0-0-3-0-|-2-0-0-2-0-0-2-0-|
|-----------------|-----------------|-----------------|-----------------|
|-----------------|-----------------|-----------------|-----------------|


|-----------------|-----------------|-----------------|-----------------|
|-----------------|-----------------|-----------------|-----------------|
|-----------------|-----------------|-----------------|-----------------|
|-----------------|-----------------|-----------------|-----------------|
|-----------------|-----------------|-----------------|-----------------|
|-----------------|-----------------|-----------------|-----------------|
|
| E E E E E E E E   E E E E E E E E   E E E E E E E E   E E E E E E E E
|-----------------|-----------------|-----------------|-----------------|
|-----------------|-----------------|-----------------|-----------------|
|-----------------|-----------------|-----------------|-----------------|
|-8-0-0-8-0-0-8-0-|-7-0-0-7-0-0-7-0-|-3-----3-----3---|-2-----2-----2---|
|-----------------|-----------------|---1-1---1-1---1-|---3-3---3-3---3-|
|-----------------|-----------------|-----------------|-----------------|


|---------------|---------------|---------------|---------------|
|---------------|---------------|---------------|---------------|
|---------------|---------------|---------------|---------------|
|---------------|---------------|---------------|---------------|
|---------------|---------------|---------------|---------------|
|---------------|---------------|---------------|---------------|
|
| Q  E E +H       Q  E E +H       Q  E E +H       Q  E E +H
|---------------|---------------|---------------|---------------|
|---------------|---------------|---------------|---------------|
|---------------|---------------|---------------|---------------|
|---------------|---------------|---------------|---------------|
|-7--8-5-(5)----|-7--8-5-(5)----|-7--8-5-(5)----|-7--8-5-(5)----|
|---------------|---------------|---------------|---------------|


|----------------|----------------|----------------|----------------|
|----------------|----------------|----------------|----------------|
|----------------|----------------|----------------|----------------|
|----------------|----------------|----------------|----------------|
|----------------|----------------|----------------|----------------|
|----------------|----------------|----------------|----------------|
|
| Q   E E +H       Q   E E +H       Q   E E +H       Q   E E +H
|----------------|----------------|----------------|----------------|
|----------------|----------------|----------------|----------------|
|-9--10-7-(7)----|-9--10-7-(7)----|-9--10-7-(7)----|-9--10-7-(7)----|
|----------------|----------------|----------------|----------------|
|----------------|----------------|----------------|----------------|
|----------------|----------------|----------------|----------------|

Then after that, play the chorus again:

Then play this variation of the Post-chorus 4x:

  Q  Q  Q  Q    Q  Q  Q  Q    Q  Q  Q  Q    Q  Q  Q  Q
|-------------|-------------|-------------|-------------|
|-------------|-------------|-------------|-------------|
|-------------|-------------|-------------|-------------|
|-------------|-------------|-------------|-------------|
|-7--0--7--0--|-8--0--7--0--|-0--7--0--8--|-0--7--0--0--|
|-7--0--7--0--|-8--0--7--0--|-0--7--0--8--|-0--7--0--0--|
|
| Q  Q  Q  Q    Q  Q  Q  Q    Q  Q  Q  Q    Q  Q  Q  Q
|-------------|-------------|-------------|-------------|
|-------------|-------------|-------------|-------------|
|-------------|-------------|-------------|-------------|
|-------------|-------------|-------------|-------------|
|-7--0--7--0--|-8--0--7--0--|-0--7--0--8--|-0--7--0--0--|
|-7--0--7--0--|-8--0--7--0--|-0--7--0--8--|-0--7--0--0--|

end on this:

  Q
|------|
|------|
|------|
|------|
|-0----|
|-0----|
|
| Q
|------|
|------|
|------|
|------|
|-0----|
|-0----|


--------------------------------------------------------------------------------


Duration Legend
---------------
W - whole; H - half; Q - quarter; E - 8th; S - 16th; T - 32nd; X - 64th; a - acciaccatura
+ - note tied to previous; . - note dotted; .. - note double dotted
Uncapitalized letters represent notes that are staccato (1/2 duration)
Irregular groupings are notated above the duration line
Duration letters will always appear directly above the note/fret number it represents the
duration for.  Duration letters with no fret number below them represent rests.  Multi-
bar rests are notated in the form Wxn, where n is the number of bars to rest for.  Low
melody durations appear below the staff

Tablature Legend
----------------
 h   - hammer-on
 p   - pull-off
 b   - bend
 pb  - pre-bend
 r   - bend release (if no number after the r, then release immediately)
 /\  - slide into or out of (from/to "nowhere")
 s   - legato slide
 S   - shift slide
 - natural harmonic
[n]  - artificial harmonic
n(n) - tapped harmonic
 ~   - vibrato
 tr  - trill
 T   - tap
 TP  - trem. picking
 PM  - palm muting
\n/  - tremolo bar dip; n = amount to dip
 \n  - tremolo bar down
 n/  - tremolo bar up
/n\  - tremolo bar inverted dip
 =   - hold bend; also acts as connecting device for hammers/pulls
 <> - volume swell (louder/softer)
 x   - on rhythm slash represents muted slash
 o   - on rhythm slash represents single note slash

Misc Legend
-----------
 |  - bar
||  - double bar
||o - repeat start
o|| - repeat end
*|  - double bar (ending)
 :  - bar (freetime)
 $  - Segno
 &  - Coda
Tempo markers -  = BPM(8/16=s8/s16), where s8 = swing 8ths, s16 = swing 16ths

--------------------------------------------------------------------------------

** Generated using Power Tab Editor by Brad Larsen: The Official Power Tab Web Site
comments
print report bad tab
3 comments total.
0 reply
brandon5pennies wrote on November 20 2007, 12:15 pm

The solos way off but the intro seems right. The chords are also wrong at places but definitely a good shot at a hard
song. Check out the Guitar Pro 5 version of the solo it's really close

0 reply
brandon5pennies wrote on November 30 2007, 04:51 am

correcting myself for my last comment. you had the right idea but you just put the wrong sweeps. i tabbed out the entire
solo. check it out dude

0 reply
Blooddawning wrote on July 2 2008, 12:26 am

Awesome tab dude, solo is off, It's not sweeped (the first part isn't) xD
But since I know the solo i didn't use it lol
Amazing tab yet again. thanks for posting it =]

I want to post or [tab]
guest
You may want to rate the tab now too:
select rating
Please do not post tabs as comments. Select "correction" instead!