Oops, an error
Loading. Please wait.

Fa-fa-fa Tab

4,128 views 21 this week
no commentswrite comment
1 2 3 4 5
accurate
x 5
Autoscroll
+/-
esc
set tempo
stop
Contributor
Difficulty
intermediate
WARNING: You are trying to view
                                    content from Ultimate-Guitar.com
                                    in an unauthorized application,
                                    which is prohibited.

                                    Please use an official Ultimate
                                    Guitar Tabs application for iPhone,
                                    iPad or Android to access legitimate
                                    chords, guitar, bass, and drum tabs
                                    from Ultimate-Guitar.com database.

                                    Type "ultimate guitar tabs" in Apple
                                    App Store's or Android Market's
                                    search to find the application.
Tab By Adrian Scholze (www.myspace.com/adrianscholze)

Fa-Fa-Fa By Datarock

Funk on!

Intro:

e|--10xx10xx10-12-12-12--12-10xxx10-12-12-|
b|--10xx10xx10-12-12-12--12-10xxx10-12-12-|
g|----------------------------------------|
d|----------------------------------------|
a|----------------------------------------|
e|----------------------------------------|

Lick 1 (00.25 sec)

e|------------------------------|
b|--15-15-15-15-15-15-15-13-----|
g|-------------------------14~--|
d|------------------------------|
a|------------------------------|
e|------------------------------|

Verse:

e|--10xx10xx10-12-12-12--12-10xxx10-12-12-|
b|--10xx10xx10-12-12-12--12-10xxx10-12-12-|
g|----------------------------------------|
d|----------------------------------------|
a|----------------------------------------|
e|----------------------------------------|


Lick 2 (00.46sec)

e|--------------------------------|
b|--------------------------------|
g|--------------------------------|
d|--12-10-12-10-12-10-12-10--12---|
a|--------------------------------|
e|--------------------------------|


Chorus:

e|--7-7--7-7--5-5-5-5--5-5---7-7---9--9---7--7-7-7-7--9--9--|
b|--7-7--7-7--5-5-5-5--5-5---8-8--10-10---8--8-8-8-8-10-10--|
g|----------------------------------------------------------|
d|----------------------------------------------------------|
a|----------------------------------------------------------|
e|----------------------------------------------------------|


e|--7-7--7-7--5-5-5-5--5-5--10-10--10-10-8-8-8-8--9-9--|
b|--7-7--7-7--5-5-5-5--5-5--10-10--10-10-8-8-8-8--9-9--|
g|-----------------------------------------------------|
d|-----------------------------------------------------|
a|-----------------------------------------------------|
e|-----------------------------------------------------|


PreVerse:

e|--10xx10xx10-12-12-12--12-10xxx10-12-12-|
b|--10xx10xx10-12-12-12--12-10xxx10-12-12-|
g|----------------------------------------|
d|----------------------------------------|
a|----------------------------------------|
e|----------------------------------------|

Lick 3 (01.15sec)
  Guitar:2                   Guitar:3
e|-------------------------------------------------|
b|----------------------15-15-15-15-15-15-15-13----|
g|---10-10-10-10-10-----------------------------14-|
d|------------------12-----------------------------|
a|-------------------------------------------------|
e|-------------------------------------------------|


Verse:

Lick 1/2
    Guitar:2                     Guitar:3
e|---------------------------------------------------------|
b|-------------------------------15-15-15-15-15-15-15-13---|
g|------------------------------------------------------14-|
d|---12-10-12-10-12-10-12-10--12---------------------------|
a|---------------------------------------------------------|
e|---------------------------------------------------------|

        (01.44) (just guitar 1 and 3)
    Guitar:1
e|--10xx10xx10-12-12-12--12-10xxx10-12-12-|
b|--10xx10xx10-12-12-12--12-10xxx10-12-12-|
g|----------------------------------------|
d|----------------------------------------|
a|----------------------------------------|
e|----------------------------------------|


Chorus

e|--7-7--7-7--5-5-5-5--5-5---7-7---9--9---7--7-7-7-7--9--9--|
b|--7-7--7-7--5-5-5-5--5-5---8-8--10-10---8--8-8-8-8-10-10--|
g|----------------------------------------------------------|
d|----------------------------------------------------------|
a|----------------------------------------------------------|
e|----------------------------------------------------------|


e|--7-7--7-7--5-5-5-5--5-5--10-10--10-10-8-8-8-8--9-9--|
b|--7-7--7-7--5-5-5-5--5-5--10-10--10-10-8-8-8-8--9-9--|
g|-----------------------------------------------------|
d|-----------------------------------------------------|
a|-----------------------------------------------------|
e|-----------------------------------------------------|


    Guitar:1
e|--10xx10xx10-12-12-12--12-10xxx10-12-12-|
b|--10xx10xx10-12-12-12--12-10xxx10-12-12-|
g|----------------------------------------|
d|----------------------------------------|
a|----------------------------------------|
e|----------------------------------------|

  Guitar:2                   Guitar:3
e|-------------------------------------------------|
b|----------------------15-15-15-15-15-15-15-13----|
g|---10-10-10-10-10-----------------------------14-|
d|------------------12-----------------------------| 4x
a|-------------------------------------------------|
e|-------------------------------------------------|


(Solo)

e|--13-13-13-12-12-12-6-6--8--10-8----8------|
b|--15-15-15-13-13-13-8-8-10------10-8--10---|
g|-------------------------------------------|
d|-------------------------------------------|
a|-------------------------------------------|
e|-------------------------------------------|

e|--13-13-13-12-12-12-6-6--8--10p8-10p8-10p8-10p8-|
b|--15-15-15-13-13-13-8-8-10----------------------|
g|------------------------------------------------|
d|------------------------------------------------| 4 times
a|------------------------------------------------|
e|------------------------------------------------|

e|--10-10--12-12-12-12--10-10--12-12-12-12--|
b|--10-10--12-12-12-12--10-10--12-12-12-12--|
g|------------------------------------------|
d|------------------------------------------| 4 times
a|------------------------------------------|
e|------------------------------------------|


e|--13-13-13-12-12-12-6-6--8--10-8----8------|
b|--15-15-15-13-13-13-8-8-10------10-8--10---|
g|-------------------------------------------|
d|-------------------------------------------|
a|-------------------------------------------|
e|-------------------------------------------|

e|--13-13-13-12-12-12-6-6--8--10p8-10p8-10p8-10p8-|
b|--15-15-15-13-13-13-8-8-10----------------------|
g|------------------------------------------------|
d|------------------------------------------------| 4 times
a|------------------------------------------------|
e|------------------------------------------------|

e|--10-10--12-12-12-12--10-10--12-12-12-12--|
b|--10-10--12-12-12-12--10-10--12-12-12-12--|
g|------------------------------------------|
d|------------------------------------------| 4 times
a|------------------------------------------|
e|------------------------------------------|


Fa-Fa-Fa Part

    Fa  Fa  Fa   F F F   Fa Fa          Fa  Fa..
e|--10--------------------------10------10------|
b|--10--------------------------10------10------|
g|--10--------------------------10------10------|
d|--12--------------------------12------12------|
a|----------------------------------------------|
e|----------------------------------------------|


Chorus

e|--7-7--7-7--5-5-5-5--5-5---7-7---9--9---7--7-7-7-7--9--9--|
b|--7-7--7-7--5-5-5-5--5-5---8-8--10-10---8--8-8-8-8-10-10--|
g|----------------------------------------------------------|
d|----------------------------------------------------------|
a|----------------------------------------------------------|
e|----------------------------------------------------------|


e|--7-7--7-7--5-5-5-5--5-5--10-10--10-10-8-8-8-8--9-9--|
b|--7-7--7-7--5-5-5-5--5-5--10-10--10-10-8-8-8-8--9-9--|
g|-----------------------------------------------------|
d|-----------------------------------------------------|
a|-----------------------------------------------------|
e|-----------------------------------------------------|


Outro:

    Guitar1:
e|--10xx10xx10-12-12-12--12-10xxx10-12-12-|
b|--10xx10xx10-12-12-12--12-10xxx10-12-12-|
g|----------------------------------------|
d|----------------------------------------|
a|----------------------------------------|
e|----------------------------------------|

    Guitar:2                     Guitar:3
e|---------------------------------------------------------|
b|-------------------------------15-15-15-15-15-15-15-13---|
g|------------------------------------------------------14-|
d|---12-10-12-10-12-10-12-10--12---------------------------|
a|---------------------------------------------------------|
e|---------------------------------------------------------|


Tab By Adrian Scholze
comments
print report bad tab
I want to post or [tab]
guest
You may want to rate the tab now too:
select rating
Please do not post tabs as comments. Select "correction" instead!