Oops, an error
Loading. Please wait.

Blue And Grey Tab

3,690 views 45 this week
1 commentread comment
1 2 3 4 5
accurate
x 1
Autoscroll
+/-
esc
set tempo
stop
Contributor
Difficulty
novice
Hey! There's an official Ultimate Guitar app which is ideal
for learning songs when you're away from computer. Get the app
WARNING: You are trying to view
                                    content from Ultimate-Guitar.com
                                    in an unauthorized application,
                                    which is prohibited.

                                    Please use an official Ultimate
                                    Guitar Tabs application for iPhone,
                                    iPad or Android to access legitimate
                                    chords, guitar, bass, and drum tabs
                                    from Ultimate-Guitar.com database.

                                    Type "ultimate guitar tabs" in Apple
                                    App Store's or Android Market's
                                    search to find the application.
   Daughter (Elena Tonra)'s "Blue And Grey"
   Chord progression gets repeated throughout the song and each part segment gets 
   repeated (as      shown by the "2x" etc.)
   See song for strumming pattern and such
   Tabbed by Lena
   Enjoy!



          2x       2x       ...
e|----8-----7-----5-----3-----8-----7-----5-----3-----5-----3-----1-----0-----5-------|
B|------------------------------------------------------------------------------------|
G|------0-----0------0-----0-----0-----0-----0-----0-----0-----0-----0-----0----------|
D|------------------------------------------------------------------------------------|
A|----7-----5-----3-----2-----7-----5-----3-----2-----3-----2-----0-----2-----3-------|
E|------------------------------------------------------------------------------------|

e|----3-----1-----0-----------------------------------------|
B|----------------------------------------------------------|
G|------0------0--------------------------------------------|
D|----------------------------------------------------------|
A|---2------0-----2-----------------------------------------|
E|----------------------------------------------------------|


One day there was a girl who cried tears of pearls
and her eyes were blue and green like none i've ever seen
and she met a man that night who filled her with delight
and he spoke in poetry and rhyme and she loved him in no time

but he changed and then soon he became jealous of her beauty and fame(?)
and he locked her away and he forced her to play
songs that were blue, songs that were grey,
yeah yeah

so then this lonely girl, had had enough of her world
so she climbed to the top of the tallest tower and stood there for way over an hour
until she decided she'd jump, so she jumped with a very loud thump
and all of the neighbours they came out and cried
when they discovered that this poor girl had died
and a boy he just came out a gasped at this beauty asleep on the grass
well her eyes were like none he had seen except for the girls in his dreams

then he changed and then soon he became depressed and very very strange
he'd lock himself away for days and days
and play songs that were blue and play songs that were grey
and play songs that reminded him of that day
yeah yeah

one day there was a girl, who fell inlove with a boy in a different world
and she speaks to him at night, only in a certain light
she wore white when he wore black and they were like a perfect match
and though one was dead and one was alive through many years their love did survive

till time faded and soon they became, both exactly the same
and they both are floating in the sky singing their own lullabies of
a song of them that reminds them of a past time
a song that reminds them of a past day
a song that is blue a song that is grey
a song that is blue a song that is grey
a song that is blue, a song that is grey.
comments
We did not receive enough feedback on this tab! Please rate:
print report bad tab
1 2 3 4 5
1 comment total.
0 reply
Ana90 wrote on January 30 2014, 06:17 pm

I play it in 5 Capo, it sounds like the original version in that way. Good tab :)

I want to post or [tab]
guest
You may want to rate the tab now too:
select rating
Please do not post tabs as comments. Select "correction" instead!