Oops, an error
Loading. Please wait.

Love Story Tab

ver2
ver2

Intro

Solo

Whole song

More versions @911Tabs.com
3,837 views 1 this week
2 commentsread comments
1 2 3 4 5
accurate
x 1
add to favorites launch autoscroll
font size
0
reset
Autoscroll
+/-
esc
set tempo
stop
Contributor
Difficulty
intermediate
WARNING: You are trying to view
                                    content from Ultimate-Guitar.com
                                    in an unauthorized application,
                                    which is prohibited.

                                    Please use an official Ultimate
                                    Guitar Tabs application for iPhone,
                                    iPad or Android to access legitimate
                                    chords, guitar, bass, and drum tabs
                                    from Ultimate-Guitar.com database.

                                    Type "ultimate guitar tabs" in Apple
                                    App Store's or Android Market's
                                    search to find the application.
TAB MADE BY DGCP
BAND: DAVE DAYS
SONG: LOVE STORY


INTRO(Play muted)
  E   |-------------------------------------------------------------|
  B   |----------0-0-----------0-0----------0-0---------0-0---------|
  G   |---------2-2-2-----2---2-2-2----2---2-2-2---2---2-2-2--2-----|
  D   |----------------------------------0-------0---0-------0------|
  A   |-------0---------0---0-------0-------------------------------|
  e   |-------------------------------------------------------------|
      

  E   |-------------------------------------------------------------|
  B   |------0-0----------0-0----------0-0---------0-0--------------|
  G   |-----2-2-2----2---2-2-2----2---2-2-2---2---2-2-2----2--------|
  D   |---4--------4---4--------4---0-------0---0-------0-----------|
  A   |-------------------------------------------------------------|
  e   |-------------------------------------------------------------|

VERS 1
  E   |-------------------------------------------------------------|
  B   |----------------------------------0-------0------0------0----|
  G   |------2------2-----2------2-----2---2---2--2---2--2---2---2--|
  D   |----2---2--2--2--2--2---2---2--0------0------0------0--------|
  A   |---0------0-----0-----0--------------------------------------|
  e   |-------------------------------------------------------------|


  E   |-------------------------------------------------------------|
  B   |------0------0------0-------0--------0--------0--------0-----|
  G   |----2--2---2---2---2--2---2----2---2----2---2----2---2----2--|
  D   |--4------4------4-------4--------0--------0--------0---------|
  A   |-------------------------------------------------------------|
  e   |-------------------------------------------------------------|


  E   |-------------------------------------------------------------|
  B   |----------------------------------0-------0------0------0----|
  G   |------2------2-----2------2-----2---2---2--2---2--2---2---2--|
  D   |----2---2--2--2--2--2---2---2--0------0------0------0--------|
  A   |---0------0-----0-----0--------------------------------------|
  e   |-------------------------------------------------------------|

  E   |-------------------------------------------------------------|
  B   |------0------0------0-------0--------------------------------|
  G   |----2--2---2---2---2--2---2----2----1------1------1-----1----|
  D   |--4------4------4-------4---------2---2---2--2---2--2--2--2--|
  A   |---------------------------------2-------2-----2------2------|
  e   |-------------------------------------------------------------|

BRIDGE
  E   |-------------------------------------------------------------|
  B   |-----0-------0-----------------------------------------------|
  G   |---2---2---2--2----1----1------2----2------2-----2-----------|
  D   |--0------0-------2--2—-2--2--4--4--4--4—-2--2—-2--2----------|
  A   |----------------2-----2-----4----4------0----0---------------|
  e   |-------------------------------------------------------------|

  E   |-------------------------------------------------------------|
  B   |-----0-------0-----------------------------------------------|
  G   |---2---2---2--2-----1-------1-------2-------2----------------|
  D   |--0------0--------2---2—--2---2---4---4---4---4—-------------|
  A   |----------------2------2--------4-------4-------4~-----------|
  e   |-------------------------------------------------------------|

CHORUS
  E   |--------------------------------------------------------------|
  B   |--------------------------------------------------------------|
  G   |--------------------------------------------------------------|
  D   |-7777777777777777-2222222222222222-4444444444444444-----------|
  A   |-7777777777777777-2222222222222222-4444444444444444-----------|
  e   |-5555555555555555-0000000000000000-2222222222222222-----------|

  E   |--------------------------------------------------------------|
  B   |------------------------0--0-------0--0-----------------------|
  G   |-77X777XX-99X999XX----2--2--2--2--2--2--2--2------------------|
  D   |-77X777XX-99X999XX--------------------------------------------|
  A   |-55X555XX-77X777XX--0---------0-0---------0-------------------|
  e   |--------------------------------------------------------------|

VERS 2 (MUTED)
  E   |--------------------------------------------------------------|
  B   |------------------0000000000000000-0000000000000000-----------|
  G   |-2222222222222222-2222222222222222-2222222222222222-----------|
  D   |-2222222222222222-0000000000000000-4444444444444444-----------|
  A   |-0000000000000000---------------------------------------------|
  e   |--------------------------------------------------------------|

  E   |--------------------------------------------------------------|
  B   |--------------------------------------------------------------|
  G   |--1111111111111111--------------------------------------------|
  D   |--2222222222222222--------------------------------------------|
  A   |--2222222222222222--------------------------------------------|
  e   |--------------------------------------------------------------|

BRIDGE (MUTED)
  E   |--------------------------------------------------------------|
  B   |-00000000-----------------------------------------------------|
  G   |-22222222-11111111-22222222-22222222--------------------------|
  D   |-00000000-22222222-44444444-22222222--------------------------|
  A   |----------22222222-44444444-00000000--------------------------|
  e   |--------------------------------------------------------------|

  E   |--------------------------------------------------------------|
  B   |-00000000-----------------------------------------------------|
  G   |-22222222-11111111-22222222-----------------------------------|
  D   |-00000000-22222222-44444444-----------------------------------|
  A   |----------22222222-44444444-----------------------------------|
  e   |--------------------------------------------------------------|


CHORUS
  E   |--------------------------------------------------------------|
  B   |--------------------------------------------------------------|
  G   |--------------------------------------------------------------|
  D   |-7777777777777777-2222222222222222-4444444444444444-----------|
  A   |-7777777777777777-2222222222222222-4444444444444444-----------|
  e   |-5555555555555555-0000000000000000-2222222222222222-----------|

  E   |--------------------------------------------------------------|
  B   |--------------------------------------------------------------|
  G   |-77X777XX-99X999XX--------------------------------------------|
  D   |-77X777XX-99X999XX-7777777777777777-2222222222222222----------|
  A   |-55X555XX-77X777XX-7777777777777777-2222222222222222----------|
  e   |-------------------5555555555555555-0000000000000000----------|

  E   |--------------------------------------------------------------|
  B   |--------------------------------------------------------------|
  G   |------------------77X777XX-99X999XX---------------------------|
  D   |-4444444444444444-77X777XX-99X999XX---------------------------|
  A   |-4444444444444444-55X555XX-77X777XX---------------------------|
  e   |-2222222222222222--------------------------------/12\0----------|

SOLO (Muted)
  E   |--------------------------------------------------------------|
  B   |--------------------------------------------------------------|
  G   |-----7---6---4---------4---6---4----------4---6---4-----------|
  D   |-7-7---7---7---7---7-7---7---7--------7-7---7---7-------------|
  A   |--------------------------------------------------------------|
  e   |--------------------------------------------------------------|

  E   |--------------------------------------------------------------|
  B   |--------------------------------------------------------------|
  G   |-----4---6---4-----7---6---4------------4---------------------|
  D   |-7-7---7---7---------7---7---7--6-7-6-7---7-6-----------------|
  A   |----------------------------------------------7---------------|
  e   |--------------------------------------------------------------|

  E   |--------------------------------------------------------------|
  B   |--------------------------------------------------------------|
  G   |----------7-9-11-13/14~~~--let ring---------------------------|
  D   |-7-7-9-11-----------------------------------------------------|
  A   |--------------------------------------------------------------|
  e   |--------------------------------------------------------------|

SPECIAL BRIDGE (I got tired of waiting…)
  E   |-----0-------0-------0-------0-------0-------0-------0-------0---|
  B   |-----------------------------------------------------------------|
  G   |---2---2---2---2---2---2---2---2---2---2---2---2---1---1---1---1-|
  D   |-----------------------------------------------------------------|
  A   |-0-------0-----------------------0-------0-------2-------2-------|
  e   |-----------------2-------2---------------------------------------|

  E   |-----0-------0-------0-------0-------0-------0-------0-------0---|
  B   |-----------------------------------------------------------------|
  G   |---2---2---2---2---2---2---2---2---2---2---2---2---1---1---1---1-|
  D   |-----------------------------------------------------------------|
  A   |-0-------0-----------------------0-------0-------2-------2-------|
  e   |-----------------2-------2---------------------------------------|



CHORUS
  E   |--------------------------------------------------------------|
  B   |--------------------------------------------------------------|
  G   |--------------------------------------------------------------|
  D   |-7777777777777777-2222222222222222-4444444444444444-----------|
  A   |-7777777777777777-2222222222222222-4444444444444444-----------|
  e   |-5555555555555555-0000000000000000-2222222222222222-----------|

  E   |------------------------|
  B   |------------------------|
  G   |-7-7----9--10-10--------|
  D   |-7-7----9--10-10--------|
  A   |-5-5----7--8--8---------|
  e   |------------------------|



END CHORUS
  E   |--------------------------------------------------------------|
  B   |--------------------------------------------------------------|
  G   |--------------------------------------------------------------|
  D   |-9999999999999999-4444444444444444-6666666666666666-----------|
  A   |-9999999999999999-4444444444444444-6666666666666666-----------|
  e   |-7777777777777777-2222222222222222-4444444444444444-----------|

  E   |--------------------------------------------------------------|
  B   |--------------------------------------------------------------|
  G   |--9-9-X-9-9-9-X-X-11-11-X-11-11-11-X-X------------------------|
  D   |--9-9-X-9-9-9-X-X-11-11-X-11-11-11-X-X------------------------|
  A   |--7-7-X-7-7-7-X-X-9--9--X-9—-9-—9--X-X------------------------|
  e   |--------------------------------------------------------------|

  E   |--------------------------------------------------------------|
  B   |--------------------------------------------------------------|
  G   |--------------------------------------------------------------|
  D   |-9999999999999999-4444444444444444-6666666666666666-----------|
  A   |-9999999999999999-4444444444444444-6666666666666666-----------|
  e   |-7777777777777777-2222222222222222-4444444444444444-----------|

  E   |--------------------------------------------------------------|
  B   |--------------------------------------------------------------|
  G   |--9-9-X-9-9-9-X-X-11-11-X-11-11-11-X-X------------------------|
  D   |--9-9-X-9-9-9-X-X-11-11-X-11-11-11-X-X—-9~~-------------------|
  A   |--7-7-X-7-7-7-X-X-9--9--X-9—-9-—9--X-X—-9~~-------------------|
  e   |----------------------------------------7~~-------------------|

comments
We did not receive enough feedback on this tab! Please rate:
1 2 3 4 5
2 comments total.
0 reply
SUM - 182 wrote on December 20 2009, 05:23 am

Better than mine;)

0 reply
Dark_Knight94 wrote on December 28 2009, 10:35 am

god damn man, i'm so learning this song...

I want to post or [tab]
guest
You may want to rate the tab now too:
select rating
Please do not post tabs as comments. Select "correction" instead!