Oops, an error
Loading. Please wait.

34 Tab

ver1
ver1

Whole song

Interactive

More versions @911Tabs.com
7,662 views 24 this week
no commentswrite comment
1 2 3 4 5
accurate
x 4
Autoscroll
+/-
esc
set tempo
stop
Hey! There's an official Ultimate Guitar app which is ideal
for learning songs when you're away from computer. Get the app
WARNING: You are trying to view
                                    content from Ultimate-Guitar.com
                                    in an unauthorized application,
                                    which is prohibited.

                                    Please use an official Ultimate
                                    Guitar Tabs application for iPhone,
                                    iPad or Android to access legitimate
                                    chords, guitar, bass, and drum tabs
                                    from Ultimate-Guitar.com database.

                                    Type "ultimate guitar tabs" in Apple
                                    App Store's or Android Market's
                                    search to find the application.
#-----------------------------PLEASE NOTE-------------------------------------#
#This OLGA file is the author's own work and represents their interpretation  #
#of the song. You may only use this file for private study, scholarship, or   #
#research. Remember to view this file in Courier, or some other monospaced    #
#font. See http://www.olga.net/faq/ for more information.                     #
#-----------------------------------------------------------------------------#

Date: Fri, 18 Aug 2000 02:43:13 -0400
From: "Scott Taylor" 
Subject: m/matthews_dave_band/#34.tab

"#34"

from Dave Matthews Band
Under The Table And Dreaming


(composite arrangement throughout)


Figure 1                                     end Fig. 1
-------------------- ---------------- ------------
-------------------- ---------------- ------------
-----------11------- -----7-6-------- ------------
-----9---9------11~- ---7-----4--7--- ------------
---7---7------9----- -5------------5- -7--7--9----
-5------------------ ---------------- ------------

--------------------- ---------------- ------------
--------------------- -----5---------- ------------
----6--9-----11------ ---7-7-6-------- ------------
-------9---9------11~ ---7-----4--7--- ------------
-0--7----7------9---- -5------------5- -7--7--9----
-5------------------- ---------------- ------------


electric - with volume swells
--------------------- -----14--------- ----7-------
--------------------- ---------------- ------------
--------------------- -----14--------- ----7-------
--------------------- ---------------- ------------
--------------------- ---------------- ------------
--------------------- ---------------- ------------
(Acoustic)
--------------------- ---------------- ------------
--------------------- -----5---------- ------------
----6--9-----11------ ---7-7-6-------- ------------
-------9---9------11~ ---7-----4--7--- ------------
-0--7----7------9---- -5------------5- -7--7--9----
-5------------------- ---------------- ------------


(elec)
-5------------------ -------9-------- ------------
-------------------- ---------------- -10---------
-6------------------ -------9-------- -13---------
-------------------- ---------------- -12---------
-------------------- ---------------- ------------
-------------------- ---------------- ------------
(acous)
-------------------- ---------------- ------------
-------------------- -----5---------- ------------
---6-9-----11------- ---7-7-6-------- ------------
-----9---9------11~- ---7-----4--7--- ------------
-5-7---7------9----- -5------------5- -7--7--9----
-5------------------ ---------------- ------------


(elec)
-------9------------ ------14-------- -7----------
-------------------- ---------------- ------------
-------9------------ ------14-------- -7----------
-------------------- ---------------- ------------
-------------------- ---------------- ------------
-------------------- ---------------- ------------
(acous)
-------------------- ---------------- ------------
-------------------- -----7---------- ------------
---6-9-----11------- ---7-7-6-------- ------------
-----9---9------11~- ---7-----4--7--- ------------
-0-7---7------9----- -5------------5- -7--7--9----
-5------------------ ---------------- ------------


(elec)
-5------------------ ------10---------- --------------
-------------------- ------------------ -10-----------
-6------------------ ------11---------- -13-----------
-------------------- ------------------ -12-----------
-------------------- ------------------ --------------
-------------------- ------------------ --------------
(acous)
-------------------- ------------------ --------------
-------------------- -----5------5----- ------10------
---6-9-----11------- ---7-7-6------7--- ---------9----
-----9---9------11~- ---7-----4--7---7- -----------11-
-0-7---7------9----- -5------------5--- -7--7--9------
-5------------------ ------------------ --------------


(elec)
-------9------------ ------14-------- -7----------
-------------------- ---------------- ------------
-------9------------ ------14-------- -7----------
-------------------- ---------------- ------------
-------------------- ---------------- ------------
-------------------- ---------------- ------------
(acous)
-------------------- ---------------- ------------
-----5-------------- ---------------- ------------
---6-------11-9----- -----7-6-------- ------------
-----9---9------11~- ---7-----4--7--- ------------
-0-7---7------9----- -5------------5- -7--7--9----
-5------------------ ---------------- ------------


(elec)
-5------------------ ------10-------- ------------
-------------------- ---------------- -10---------
-6------------------ ------11-------- -13---------
-------------------- ---------------- -12---------
-------------------- ---------------- ------------
-------------------- ---------------- ------------
(acous)
-------------------- ---------------- ------------
-------------------- -----7---------- ------------
---6-9-----11-9----- ---7-7-6-------- ------------
-----9---9------11~- ---7-----4--7--- ------------
-0-7---7------9----- -5------------5- -7--7--9----
-5------------------ ---------------- ------------


(elec)
-------9------------ -----14----------- -7------------
-------------------- ------------------ --------------
-------9------------ -----14----------- -7------------
-------------------- ------------------ --------------
-------------------- ------------------ --------------
-------------------- ------------------ --------------
(acous)
-------------------- ------------------ --------------
-------------------- ------------5----- ---9----------
---6-9-----11------- -----7-6------7--- --9-----------
-----9---9------11~- ---7-----4--7---7- -9-------9~---
-0-7---7------9----- -5------------5--- -7---7---9----
-5------------------ ------------------ --------------


(acous)
-------------------- ---------------- ------------
-------------------- ---------------- ------------
-----------11------- -----7-6-------- ------------
-----9---9------11~- ---7-----4--7--- ------------
---7---7------9----- -5------------5- -7--7--9----
-5------------------ ---------------- ------------


(elec)
-------------------- ------14-------- -7----------
-------------------- ---------------- ------------
-------------------- ------14-------- -7----------
-------------------- ---------------- ------------
-------------------- ---------------- ------------
-------------------- ---------------- ------------
(acous)
-------------------- ---------------- ------------
-------------------- ---------------- ------------
---6-9-----11------- -----7-6-------- ------------
-----9---9------11~- ---7-----4--7--- ------------
-0-7---7------9----- -5------------5- -7--7--9--7-
-5------------------ ---------------- ------------


(elec)
-5------------------ ------10---------- --------------
-------------------- ------------------ -10-----------
-6------------------ ------11---------- -13-----------
-------------------- ------------------ -12-----------
-------------------- ------------------ --------------
-------------------- ------------------ --------------
(acous)
-------------------- ------------------ --------------
-------------------- ------------6----- ---9---10-----
---6-9-----11-9----- -----7-6------7--- --9------9----
-----9---9------11~- ---7-----4--7---7- -9--------11--
-0-7---7------9----- -5------------5--- -7---7--9-----
-5------------------ ------------------ --------------


(elec)
-5------------------ ------10---------- -7------------
-------------------- ------------------ --------------
-6------------------ ------11---------- -7------------
-------------------- ------------------ --------------
-------------------- ------------------ --------------
-------------------- ------------------ --------------
(acous)
-------------------- ------------------ --------------
-------------------- -------------7---- ---9----------
---6-9-----11-9----- -----7-6----7-7--- --9-----------
-----9---9------11~- ---7-----4--7---7- ~9------------
-0-7---7------9----- -5------------5--- -7---7---9----
-5------------------ ------------------ --------------


(acous)
Figure 2                      end Fig. 2
---------- ---------- -----------
---------- ---------- -----------
---------- ---------- -----------
-----0---- -----0---- -----------
---4------ ---5------ -7--7--9---
-2-------- -3-------- -----------


(elec)
-------9------------- ------14--------- -7-----------
--------------------- ----------------- -------------
-------9------------- ------14--------- -7-----------
--------------------- ----------------- -------------
--------------------- ----------------- -------------
--------------------- ----------------- -------------
(acous)
--------------------- ----------------- -------------
--------------------- -----5----------- ---7---------
---6-9-----11-------- ---7-7-6--------- --7----------
-7---9---9------11~-- ---7-----4--7---- -7-----------
---7---7------9------ -5------------5-- -7---7---9---
-5------------------- ----------------- -------------


play Figure 2


(elec)
-------9------------ ------14-------- -7----------
-------------------- ---------------- ------------
-------9------------ ------14-------- -7----------
-------------------- ---------------- ------------
-------------------- ---------------- ------------
-------------------- ---------------- ------------
(acous)
-------------------- ---------------- ------------
-----0-------------- -----5---------- ------------
---6-------11------- ---7-7-6-------- ------------
-----9---9------11~- ---7-----4--7--- ------------
-0-7---7------9----- -5------------5- -7--7--9----
-5------------------ ---------------- ------------


(elec)
-5------------------ ------10-------- -12------------
-------------------- ---------------- ---------------
-6------------------ ------11-------- -13------------
-------------------- ---------------- ---------------
-------------------- ---------------- ---------------
-------------------- ---------------- ---------------
(acous)
-------------------- ---------------- ---------------
-------------------- -----7---------- ---9----10-----
---6-9-----11------- ---7-7-6-------- --9-------9----
-----9---9------11~- ---7-----4--7--- -9---------11--
-0-7---7------9----- -5------------5- -7---7--9------
-5------------------ ---------------- ---------------


(elec)
-5------------------ -------5-------- -5-------------
-------------------- ---------------- ---------------
-6------------------ -------7-------- -7-------------
-------------------- ---------------- ---------------
-------------------- ---------------- ---------------
-------------------- ---------------- ---------------
(acous)
-------------------- ---------------- ---------------
-------------------- -----7---------- ---9-----10----
---6-9-----11-9----- ---7-7-6-------- --9--------9---
-----9---9------11~- ---7-----4--7--- -9----------11-
-0-7---7------9----- -5------------5- -7---7---9-----
-5------------------ ---------------- ---------------


(elec)
-------------------- ------14-------- -7-------------
-------------------- ---------------- ---------------
-------------------- ------14-------- -7-------------
-------------------- ---------------- ---------------
-------------------- ---------------- ---------------
-------------------- ---------------- ---------------
(acous)
-------------------- ---------------- ---------------
-------------------- -----7---------- ---9----10-----
---6-9-----11-9----- ---7-7-6-------- --9-------9----
-----9---9------11~- ---7-----4--7--- -9---------11--
-0-7---7------9----- -5------------5- -7---7---9-----
-5------------------ ---------------- ---------------


(elec)
-5------------------ ------10---------- -7------------
-------------------- ------------------ --------------
-6------------------ ------11---------- -7------------
-------------------- ------------------ --------------
-------------------- ------------------ --------------
-------------------- ------------------ --------------
(acous)
-------------------- ------------------ --------------
-------------------- ------------5----- ---9----------
---6-9-----11-9----- -----7-6------7--- --9-----------
-----9---9------11~- ---7-----4--7---7- -9------------
-0-7---7------9----- -5------------5--- -7---7---9----
-5------------------ ------------------ --------------


Figure 3
(acous)                                      end Figure 3
-------------------- -------------------- ------------
-----3-------3------ -----7-------------- -----5------
---2---2---2---2---- -----7-------7------ ---4--------
-4-------4-------4-- -5-7---7-5-7---7-5-- --6---------
---4-5-------------- ---5-5-------------- -7---7--9---
-2------------------ -3------------------ ------------


(elec)
-5------------------ ------14-------- -7------------
-------------------- ---------------- --------------
-6------------------ ------14-------- -7------------
-------------------- ---------------- --------------
-------------------- ---------------- --------------
-------------------- ---------------- --------------
(acous)
-------------------- ---------------- --------------
-------------------- ---------------- ---9----------
---6-9-----11-9----- -----7-6-------- --9-----------
-----9---9------11~- ---7-----4--7--- -9------------
-0-7---7------9----- -5------------5- -7---7---9----
-5------------------ ---------------- --------------


play Figure 3


(elec)
-------------------- ------14-------- -7-------------
-------------------- ---------------- ---------------
-------------------- ------14-------- -7-------------
-------------------- ---------------- ---------------
-------------------- ---------------- ---------------
-------------------- ---------------- ---------------
(acous)
-------------------- ---------------- ---------------
-------------------- ---------------- ---9----10-----
---6-9-----11-9----- -----7-6-------- --9-------9----
-----9---9------11~- ---7-----4--7--- -9---------11--
-0-7---7------9----- -5------------5- -7---7---9-----
-5------------------ ---------------- ---------------


(elec)
-5------------------ ------10-------- ---------------
-------------------- ---------------- -10------------
-6------------------ ------11-------- -13------------
-------------------- ---------------- -12------------
-------------------- ---------------- ---------------
-------------------- ---------------- ---------------
(acous)
-------------------- ---------------- ---------------
-------------------- -----7---------- ---9----10-----
---6-9-----11-9----- ---7-7-6-------- --9-------9----
-----9---9------11~- ---7-----4--7--- -9---------11--
-0-7---7------9----- -5------------5- -7---7---9-----
-5------------------ ---------------- ---------------


(elec)
-------------------- ------14---------- -7-------------
-------------------- ------------------ ---------------
-------------------- ------14---------- -7-------------
-------------------- ------------------ ---------------
-------------------- ------------------ ---------------
-------------------- ------------------ ---------------
(acous)
-------------------- ------------------ ---------------
-------------------- ------------5----- ---9----10-----
---6-9-----11-9----- -----7-6------7--- --9-------9----
-----9---9------11~- ---7-----4--7---7- -9---------11--
-0-7---7------9----- -5------------5--- -7---7---9-----
-5------------------ ------------------ ---------------


(elec)
-5------------------ ------10---------- ---------------
-------------------- ------------------ -10------------
-6------------------ ------11---------- -13------------
-------------------- ------------------ -12------------
-------------------- ------------------ ---------------
-------------------- ------------------ ---------------
(acous)
-------------------- ------------------ ---------------
-------------------- ------------5----- ---9-----9-----
---6-9-----11-9----- -----7-6------5--- --9-------9----
-----9---9------11~- ---7-----4--7---7- -9-------------
-0-7---7------9----- -5------------5--- -7---7---9-----
-5------------------ ------------------ ---------------


play Figure 3


(elec)
-5------------------ ------14---------- -7------------
-------------------- ------------------ --------------
-6------------------ ------14---------- -7------------
-------------------- ------------------ --------------
-------------------- ------------------ --------------
-------------------- ------------------ --------------
(acous)
-------------------- ------------------ --------------
-------------------- ------------5----- ---9----------
---6-9-----11-9----- -----7-6------7--- --9-----------
-----9---9------11~- ---7-----4--7---7- -9------------
-0-7---7------9----- -5------------5--- -7---7---9----
-5------------------ ------------------ --------------


play Figure 3


(elec)
-------9------------ ------14-------- -7-------------
-------------------- ---------------- ---------------
-------9------------ ------14-------- -7-------------
-------------------- ---------------- ---------------
-------------------- ---------------- ---------------
-------------------- ---------------- ---------------
(acous)
-------------------- ---------------- ---------------
-----0-------------- ---------------- ---9----10-----
---6-------11-9----- -----7-6-------- --9-------9----
-----9---9------11~- ---7-----4--7--- -9---------11--
-0-7---7------9----- -5------------5- -7---7---9-----
-5------------------ ---------------- ---------------


(elec)
-5------------------ ------10-------- -12------------
-------------------- ---------------- ---------------
-6------------------ ------11-------- -13------------
-------------------- ---------------- ---------------
-------------------- ---------------- ---------------
-------------------- ---------------- ---------------
(acous)
-------------------- ---------------- ---------------
-------------------- ---------------- ---9----9------
---6-9-----11-9----- -----7-6-------- --9------------
-----9---9------11~- ---7-----4--7--- -9-------------
-0-7---7------9----- -5------------5- -7---7--9------
-5------------------ ---------------- ---------------


play Figure 3


(elec)
-9------------------ ------14---------- -7----------------
-------------------- ------------------ ------------------
-9------------------ ------14---------- -7----------------
-------------------- ------------------ ------------------
-------------------- ------------------ ------------------
-------------------- ------------------ ------------------
(acous)
-------------------- ------------------ ------------------
-------------------- ------------5----- -----7------------
---6-9-----11-9----- -----7-6------7--- ------------------
-----9---9------11~- ---7-----4--7----- ---9--------------
-0-7---7------9----- -5------------5--- -7-----7---9------
-5------------------ ------------------ --------------5~~-


(acous)
---------------------------- ----------------------------
--------------0-0000-0-0000- 0-0000-0-0000-0-0000-0-0000-
--------------4-4444-4-4444- 4-4444-4-4444-4-4444-4-4444-
---------------------------- ----------------------------
---------------------------- ----------------------------
---------------------------- ----------------------------
(acous)
---------------------------- ----------------------------
---------------------------- ----------------------------
---------------------------- ----------------------------
-7-6-------7-9-------------- -7-6--------7---9-8---------
-5-4-7-9---5-7-------------- -5-4-7-9----5-7-------9-----
-----5-7-------------------- -----5-7--------------------


(acous)
---------------------------- ----------------------------
0-0000-0-0000-0-0000-0-0000- 0-0000-0-0000-0-0000-0-0000-
4-4444-4-4444-4-4444-4-4444- 4-4444-4-4444-4-4444-4-4444-
---------------------------- ----------------------------
---------------------------- ----------------------------
---------------------------- ----------------------------
(acous)
---------------------------- ----------------------------
---------------------------- ----------------------------
---------------------------- ----------------------------
-7-6-------7-9-------------- -7-6--------7---9-8---------
-5-4-7-9---5-7-------------- -5-4-7-9----5-7-------9-----
-----5-7-------------------- -----5-7--------------------


(acous)
---------------------------- ----------------------------
0-0000-0-0000-0-0000-0-0000- 0-0000-0-0000-0-0000-0-0000-
4-4444-4-4444-4-4444-4-4444- 4-4444-4-4444-4-4444-4-4444-
---------------------------- ----------------------------
---------------------------- ----------------------------
---------------------------- ----------------------------
(acous)
---------------------------- ----------------------------
---------------------------- ----------------------------
---------------------------- ----------------------------
-7-6-------7-9-------------- -7-6--------7---9-8---------
-5-4-7-9---5-7-------------- -5-4-7-9----5-7-------9-----
-----5-7-------------------- -----5-7--------------------


(acous)
---------------------------- ----------------------------
0-0000-0-0000-0-0000-0-0000- 0-0000-0-0000-0-0000-0-0000-
4-4444-4-4444-4-4444-4-4444- 4-4444-4-4444-4-4444-4-4444-
---------------------------- ----------------------------
---------------------------- ----------------------------
---------------------------- ----------------------------
(acous)
---------------------------- ----------------------------
---------------------------- ----------------------------
---------------------------- ----------------------------
-7-6-------7-9-------------- -7-6--------7---9-8---------
-5-4-7-9---5-7-------------- -5-4-7-9----5-7-------9-----
-----5-7-------------------- -----5-7--------------------


(acous)
---------------------------- ----------------------------
0-0000-0-0000-0-0000-0-0000- 0-0000-0-0000-0-0000-0-0000-
4-4444-4-4444-4-4444-4-4444- 4-4444-4-4444-4-4444-4-4444-
---------------------------- ----------------------------
---------------------------- ----------------------------
---------------------------- ----------------------------
(acous)
---------------------------- ----------------------------
---------------------------- ----------------------------
---------------------------- ----------------------------
-7-6-------7-9-------------- -7-6--------7---9-8---------
-5-4-7-9---5-7-------------- -5-4-7-9----5-7-------9-----
-----5-7-------------------- -----5-7--------------------


(acous)
---------------------------- --------------------
0-0000-0-0000-0-0000-0-0000- 0-0000-0-0000-0-0000
4-4444-4-4444-4-4444-4-4444- 4-4444-4-4444-4-4444
---------------------------- --------------------
---------------------------- --------------------
---------------------------- --------------------
(acous)
---------------------------- --------------------
---------------------------- --------------------
---------------------------- --------------------
-7-6-------7-9-------------- -7-6--------7---9-8-
-5-4-7-9---5-7-------------- -5-4-7-9----5-7-----
-----5-7-------------------- -----5-7------------


(acous)
------------------- -----------------
------------------- -----------------
------------------- -----------------
---11---9---7------ -----10-----10---
-9----7---5-----10- ---8------8------
--------------8---- -6------6--------


(acous)
------------------------ ------------------- ---------------
--------------9--------- -------7-----5----- ---------------
-----------9-11--9------ -----7-6-7-----7--- ---7-10---7-10-
-----9--11-9-------11~-- ---7-----4-7-7---7- -8---10-8---10-
---7-----7-------9------ -5-------------5--- ---8------8----
-5---------------------- ------------------- -6------6------


(acous)
------------------------ ---------5--------- ---------------
-----------9------------ -------5---5------- ---------------
---------9---11--9------ -----7-6----------- ---7-10--------
-----9-----9-------11~-- ---7-----4---7----- -8---10--------
---7-----7-------9------ -5-------------5--- ---8-----------
-5---------------------- ------------------- -6-------------


The End




Scott Taylor
School of Music
The Florida State University
http://www.geocities.com/sequenzax
AOL IM: tromba1B
"Eat, drink, and be merry, for tomorrow we shall die." - Epicurus
comments
print report bad tab
I want to post or [tab]
guest
You may want to rate the tab now too:
select rating
Please do not post tabs as comments. Select "correction" instead!