Oops, an error
Loading. Please wait.

Ants Marching Drum Tab

ver2
ver2

Whole song

Interactive

More versions @911Tabs.com
448 views 1 this week
no commentswrite comment
1 2 3 4 5
please rate
Autoscroll
+/-
esc
set tempo
stop
Contributor
WARNING: You are trying to view
                                    content from Ultimate-Guitar.com
                                    in an unauthorized application,
                                    which is prohibited.

                                    Please use an official Ultimate
                                    Guitar Tabs application for iPhone,
                                    iPad or Android to access legitimate
                                    chords, guitar, bass, and drum tabs
                                    from Ultimate-Guitar.com database.

                                    Type "ultimate guitar tabs" in Apple
                                    App Store's or Android Market's
                                    search to find the application.

Band- Dave Matthews Band
Song- Ants Marching



S Snare
H Hi-Hat
# Hi-Hat splash (quick open close)
B bass drum
C crash Cymbal (x probably splash)
R ride cymbal
b bell of cymbal
o on hi hat line, open hi hat
T Tom (Numbers used to differentiate, i think he uses 5)


C |----------------|----------------|X---------------|----------------|
S |------------O---|----O-------O---|----O-------O---|----O-------O---|
B |----------------|----------------|O---------------|----------------|
   1e&a2e&a3e&a4e&a 1e&a2e&a3e&a4e&a 1e&a2e&a3e&a4e&a
1e&a2e&a3e&a4e&a


C |----------------|----------------|X---------------|----------------|
H |----------------|----------------|------xxX-x-X-xx|X-----xxX-x-xXxx|
S |----O-------O---|----O-------O---|----O-----------|----O-----------|
B |----------------|----------------|O-------o---o---|o-------o---o---|
   1e&a2e&a3e&a4e&a 1e&a2e&a3e&a4e&a 1e&a2e&a3e&a4e&a
1e&a2e&a3e&a4e&a


C |----------------|----------------|X---------------|----------------|
H |X-----xxX-x-X-xx|X-----xxX-xxX---|------xxX-x-xXxx|X-----x-x-X-xXxx|
S |----O-----------|----O---------oo|----O-----------|----O-----------|
B |O-------o---o---|o-------o---o---|o-------o---o---|o-------o---o---|
   1e&a2e&a3e&a4e&a 1e&a2e&a3e&a4e&a 1e&a2e&a3e&a4e&a
1e&a2e&a3e&a4e&a
                  ___                   
                 |   |
H |X-----x-X-xxX-xxxx|X-----x-X-xxX-x-|#-----x-x-X-xXxx|X-----xxx-X-xX-x|
S |----O-------------|----O-----------|----O-----------|----O-----------|
B |o-------o---o-----|o-------o---o---|o-------o---o---|o-------o---o---|
   1e&a2e&a3e&a4e& a  1e&a2e&a3e&a4e&a 1e&a2e&a3e&a4e&a
1e&a2e&a3e&a4e&a 


C |----------------|--------------X-|X---------------|----------------|
H |X-------X-xxX-xx|X----------#----|------xxX-x-xXxx|X-----xxx-X-xXxx|
S |----O-----------|--o-----o-------|----O-----------|----O-----------|
T |----------------|----112---------|----------------|----------------|
B |o-------o---o---|o-------o--o--o-|o-------o---o---|o-------o---o---|
   1e&a2e&a3e&a4e&a 1e&a2e&a3e&a4e&a 1e&a2e&a3e&a4e&a
1e&a2e&a3e&a4e&a 
 
                                    
H |X------XX--XX--X|X-----xxX-xxX---|#-----xxx-X-xXxx|X-----xxx-X-xX-x|
S |----O-----------|----O---------oo|----O-----------|----O-----------|
B |o-------o---o---|o-------o---o---|o-------o---o---|o-------o---o--o|
   1e&a2e&a3e&a4e&a 1e&a2e&a3e&a4e&a 1e&a2e&a3e&a4e&a
1e&a2e&a3e&a4e&a 


C |----------------|----------------|X---------------|----------------|
H |X-x-x-x-xXxxxXxx|X-x---x-xXx-o-+-|--o-+---xXx-xX--|X-x-x-x--xx-xxx-|
S |----O-----------|----O---------oo|----O-----------|----O-----------|
B |o-o-----o---o---|o-o-----o---o---|o---------o--o--|--o-------o--o--|
   1e&a2e&a3e&a4e&a 1e&a2e&a3e&a4e&a 1e&a2e&a3e&a4e&a
1e&a2e&a3e&a4e&a 


C |X---------------|----------------|----------------|----------------|
H |--x---x-xXxxxXxx|x-x-----xXxxxXx-|X-x---x-xXxxxXxx|X-X-----xXxxxXx-|
S |----O-----------|----o-o---------|----O-----------|----o-o---------|
B |o-------o---o---|o-o-------o--o-o|o-------o---o---|o-o-------o--o--|
   1e&a2e&a3e&a4e&a 1e&a2e&a3e&a4e&a 1e&a2e&a3e&a4e&a
1e&a2e&a3e&a4e&a 


C |----------------|----------------|X-----x---------|----------------|
H |X-o-+-x-xXx-xXx-|x-x---x-xXx-X---|----------o-+---|----------------|
S |----O-----------|----O-----------|----o---------OO|O---------------|
T |----------------|--------------44|----------------|--111-222-333-44|
B |o-------o---o---|o-o-----o---o---|o-----o---------|----------------|
   1e&a2e&a3e&a4e&a 1e&a2e&a3e&a4e&a 1e&a2e&a3e&a4e&a
1e&a2e&a3e&a4e&a 


H |#-----xxX-xxX-x-|X-----xxX-x-xXx-|#-----xxX-xxX-x-|X-----xxX-x-xXx-|
S |----O-----------|----O-----------|----O-----------|----O-----------|
B |o-------o---o---|o-------o---o---|o-------o---o---|o-------o---o---|
   1e&a2e&a3e&a4e&a 1e&a2e&a3e&a4e&a 1e&a2e&a3e&a4e&a
1e&a2e&a3e&a4e&a 


H |X-----xxX-xxX-xx|X-----xxX--xX---|#-----xxx-x-xXxx|X-----x-x-x-xXxx|
S |----O-----------|----O---------oo|----O-----------|----O-----------|
B |o-------o---o---|o-------o---o---|o-------o---o---|o-------o---o---|
   1e&a2e&a3e&a4e&a 1e&a2e&a3e&a4e&a 1e&a2e&a3e&a4e&a
1e&a2e&a3e&a4e&a 


C |----------------|----------------|X-----X---------|x--------x------|
H |X-----x-Xxx-Xxx-|X---------------|----------o-+---|----------------|
S |----O-----------|--o-------------|----o-------o---|----o-------o---|
T |----------------|----2-3-4-554-5-|----------------|----------------|
B |o-------o---o---|o---------------|o-----o---------|o-----o---o-----|
   1e&a2e&a3e&a4e&a 1e&a2e&a3e&a4e&a 1e&a2e&a3e&a4e&a
1e&a2e&a3e&a4e&a 


C |----------------|----------------|X-----X---------|----------X-----|
H |--------X-X-X-Xo|+-X-----X-X-----|----------o-+-x-|--x---#---------|
S |----o-------o---|----o-------o---|----o-------o---|----o-------o-oo|
T |----------------|--------------55|----------------|----------------|
B |o-----o---------|o-----o---o-----|o-----o-------o-|------o---o-----|
   1e&a2e&a3e&a4e&a 1e&a2e&a3e&a4e&a 1e&a2e&a3e&a4e&a
1e&a2e&a3e&a4e&a 


C |X---------------|----------------|----------------|----------------|
H |------x-xXxxxo+-|x-o-+---xXx-xX--|X-X---x-xXxxxXxx|x-x-x-x---------|
S |----O-----------|----O-----------|----o-----------|----o----O--O-OO|
B |o---------o--o--|o---------o--o--|o-o-----o---o---|o-------O-OO-O--|
   1e&a2e&a3e&a4e&a 1e&a2e&a3e&a4e&a 1e&a2e&a3e&a4e&a
1e&a2e&a3e&a4e&a 


C |X---------------|----------------|----------------|----------------|
H |--o-+-x-xXxxxXxx|x-x---x-xXxxx-xX|x-x---o-+-x-----|----------------|
S |----O-----------|----o-----------|----O----o----oo|o---------------|
T |----------------|----------------|----------------|--111-222-333-44|
B |o-------o---o---|o-------o---o---|o-O--------oo---|----------------|
   1e&a2e&a3e&a4e&a 1e&a2e&a3e&a4e&a 1e&a2e&a3e&a4e&a
1e&a2e&a3e&a4e&a 


H |#-----xxX-x-xXxx|x-----x-x-x-xXxx|x-----x-X-xxX-xx|X-----x-x-xxX-x-|
S |----O-----------|----O-----------|----O-----------|----O-----------|
B |o-------o---o---|o-------o---o---|o-------o---o---|o-------o---o---|
   1e&a2e&a3e&a4e&a 1e&a2e&a3e&a4e&a 1e&a2e&a3e&a4e&a
1e&a2e&a3e&a4e&a 


C |----------------|X---------------|----------------|----------------|
H |----------------|------xxX-xxxXx-|----------------|----------------|
S |O---------------|----O-----------|O---------------|O---------O-OO--|
T |----------------|----------------|----------------|--------------5-|
B |o---------------|o-------o---o---|O---------------|O-------------o-|
   1e&a2e&a3e&a4e&a 1e&a2e&a3e&a4e&a 1e&a2e&a3e&a4e&a
1e&a2e&a3e&a4e&a 


C |X-----X---------|b---------------|X---------------|------b-------b-|
H |----------o-+-x-|--x-x-xxx-x-x-x-|--xx--x-x-X-x-x-|xXxx----xXxxx---|
S |----o-------o---|----o-------o---|----o-------o---|----o-------o---|
B |o-----o-------o-|----------o---o-|o-----o-------o-|----------o---o-|
   1e&a2e&a3e&a4e&a 1e&a2e&a3e&a4e&a 1e&a2e&a3e&a4e&a
1e&a2e&a3e&a4e&a 


C |X---------------|----------------|X---------------|----------------|
H |--xx-xx-x-X-x-x-|x-x-x-x-x-x-x-x-|--x-x-o-+-X-x-x-|x-x-x-x---XX----|
S |----o-------o---|----o-------o---|----o-------o---|--o-o---oo------|
T |----------------|----------------|----------------|------------1122|
B |o-----o-------o-|--o-----o-o---o-|o-----o-------o-|------o---------|
   1e&a2e&a3e&a4e&a 1e&a2e&a3e&a4e&a 1e&a2e&a3e&a4e&a
1e&a2e&a3e&a4e&a 


C |X---X-----------|----------------|----x-----------|----------------|
H |--o-+-x-xXxxxXxx|x-x-x-x-x------o|+-x---xxxXxxxXxx|x-x-x-x-xXx-X-xX|
S |----o-----------|----o----oo-o-o-|----o-----------|----o-----------|
B |o-------o---o---|o-o-----o-------|--o-----o---o---|o-o-----o---o--o|
   1e&a2e&a3e&a4e&a 1e&a2e&a3e&a4e&a 1e&a2e&a3e&a4e&a
1e&a2e&a3e&a4e&a 


C |----------------|----------------|X---------------|-------------x--|
H |x-x-x-x-x-XX----|-----------#--#-|--x---x---------|----------------|
S |----o----o--oo--|O-O---O-O-------|----o----o--o---|O---O-----#-----|
T |--------------11|----------------|----------------|----------------|
B |--o-----o-------|-----------o--o-|o-------o-oo-ooo|----------o--o--|
   1e&a2e&a3e&a4e&a 1e&a2e&a3e&a4e&a 1e&a2e&a3e&a4e&a
1e&a2e&a3e&a4e&a 
                   

C |X-----X-----X---|X---------x-----|X---------------|----------------|
H |----------------|------#---------|--------#-------|x---------------|
S |----o-------o---|----o-------o---|----o-------o---|----o-----------|
T |----------2-----|----------------|----------------|--3----34-4-5555|
B |o-----o-----o---|o-------------o-|o-----o---o---o-|o---------------|
   1e&a2e&a3e&a4e&a 1e&a2e&a3e&a4e&a 1e&a2e&a3e&a4e&a
1e&a2e&a3e&a4e&a 


C |X-----X---------|----------X-----|-------------x--|X---------------|
H |----------#---o-|------#---------|xx-x-x-XX-------|--x---o-xXxxxXxx|
S |----o-------o---|----o-------o---|--o-o-o--o--o---|----o-----------|
T |----------------|--------------3-|----------33----|----------------|
B |o-----o-------o-|------o---o-----|----o-------o--o|o-------o---o---|
   1e&a2e&a3e&a4e&a 1e&a2e&a3e&a4e&a 1e&a2e&a3e&a4e&a
1e&a2e&a3e&a4e&a 


C |----------------|----------------|X---------------|----------------|
H |x-x---x-xXxxxXxx|x-x---x-x-xxx-x-|--o-+-x-xXxxxx--|----------------|
S |----o-----------|----o----o---o--|----o---------OO|O---------------|
T |----------------|----------------|----------------|--111-222-333-44|
B |o-------o---o---|o-o-----o---o--o|o-------o---o---|----------------|
   1e&a2e&a3e&a4e&a 1e&a2e&a3e&a4e&a 1e&a2e&a3e&a4e&a
1e&a2e&a3e&a4e&a 


VIOLIN SOLO
H |x---------------|x---------------|x---------------|x---------------|
S |O---------------|O---------------|O---------------|O---------------|
   1e&a2e&a3e&a4e&a 1e&a2e&a3e&a4e&a 1e&a2e&a3e&a4e&a
1e&a2e&a3e&a4e&a 
                                                      _____ 
                                                     |  3  |
C |----------------|----------------|----------------|--------X--X------|
H |x---------------|x---------------|x---------------|x-----------------|
S |O---------------|O---------------|O---------------|O----OO-------O---|
T |----------------|----------------|----------------|---11-----------55|
B |----------------|----------------|----------------|--------o--o------|
   1e&a2e&a3e&a4e&a 1e&a2e&a3e&a4e&a 1e&a2e&a3e&a4e&a 1
& a 2e&a3e&a4e&a 


C |X-----X-------x-|----------------|X-----X-------x-|----------------|
H |--x-----x-x-----|x-x-x-x-x-x-x-x-|--x-----x-x-----|x-x-------------|
S |----o-------o---|----o-------o---|----o-------o---|----o-----------|
T |----------------|----------------|----------------|------3344444-55|
B |o-----o-------o-|----------o-----|o-----o-------o-|----------------|
   1e&a2e&a3e&a4e&a 1e&a2e&a3e&a4e&a 1e&a2e&a3e&a4e&a
1e&a2e&a3e&a4e&a 


C |X-----X-------x-|----------------|X-----X---------|-----X--X-------|
H |--x-----x-x-----|x-o-+-x--#--o-+-|--x-----x-o-+-x-|----------------|
S |----o-------o---|----o---o-----oo|----o-------o---|o-o-o-----------|
T |----------------|----------------|----------------|----------3-334-|
B |o-----o-------o-|---------o--o---|o-----o---------|-----o-oo-------|
   1e&a2e&a3e&a4e&a 1e&a2e&a3e&a4e&a 1e&a2e&a3e&a4e&a
1e&a2e&a3e&a4e&a 
                                                                     __
                                                                    |  |
C |X-----X-------X-|--------b--b--b-|X-----x-------X-|b-----X---X------|
H |--x-----xxX-----|xxX---xx--------|--x-------------|-----------------|
S |----o-------o---|----o-------o---|----o-------o---|--o-o-------o----|
T |----------------|----------------|----------3-----|--------------222|
B |o-----o-------o-|----------o---o-|o-----o-------X-|------o---o------|
   1e&a2e&a3e&a4e&a 1e&a2e&a3e&a4e&a 1e&a2e&a3e&a4e&a
1e&a2e&a3e&a4e& a 


C |-----------X--X--|X---------------|----------------|-------------X--|
H |-----------------|--------xXxxx#xx|X-xx--o-x-x-x#x-|x-x-------#-----|
S |o--------O-------|----O-----------|----O----o------|----O---o-------|
T |--33455-5--------|----------------|----------------|----------------|
B |-----------o--o--|o---------o--o--|o---------o--o--|---o-oo---o--o--|
   1e& a2e&a3e&a4e&a 1e&a2e&a3e&a4e&a 1e&a2e&a3e&a4e&a
1e&a2e&a3e&a4e&a 
                                                _______
                                               |       | 
C |X---------------|----------------|-----X------------|
H |--x-----x#x-x#xx|xx--x#x-x#-x--xx|x-x-x-------------|
S |----o-o---------|--o---------o---|-o------o----oo---|
T |----------------|----------------|----------111--111|
B |o--o------o--o--|-o--o-o--o-o----|-----o------------|
   1e&a2e&a3e&a4e&a 1e&a2e&a3e&a4e&a 1e&a2e&a3e& a4e& a 
   
   ________________
  |                |
C |------------------X--X--|X---------------|
S |o-----------------------|----------------|
T |----444-4-555-5---------|----------------|
B |------------------o--o--|o---------------|
   1 e & a 2 e & a 3e&a4e&a 1e&a2e&a3e&a4e&a


END
	
comments
We did not receive enough feedback on this tab! Please rate:
print report bad tab
1 2 3 4 5
I want to post or [tab]
guest
You may want to rate the tab now too:
select rating
Please do not post tabs as comments. Select "correction" instead!