Oops, an error
Loading. Please wait.

Bartender Tab

ver2
ver2

Whole song

More versions @911Tabs.com
19,777 views 42 this week
no commentswrite comment
1 2 3 4 5
excellent!
x 6
Autoscroll
+/-
esc
set tempo
stop
Contributor
Difficulty
Tuning
intermediate
D A D F# A D
Hey! There's an official Ultimate Guitar app which is ideal
for learning songs when you're away from computer. Get the app
WARNING: You are trying to view
                                    content from Ultimate-Guitar.com
                                    in an unauthorized application,
                                    which is prohibited.

                                    Please use an official Ultimate
                                    Guitar Tabs application for iPhone,
                                    iPad or Android to access legitimate
                                    chords, guitar, bass, and drum tabs
                                    from Ultimate-Guitar.com database.

                                    Type "ultimate guitar tabs" in Apple
                                    App Store's or Android Market's
                                    search to find the application.
-------------------------------------------------------------------------------
                          Bartender - Dave Matthews Band
-------------------------------------------------------------------------------
Tabbed by:Willis

Tuning:DADGAD
(Now before you guys chew me out I know Dave doesn't play it in dadgad. But He
does play it with an entire band to back him up, so playing just the guitar 
part sounds dull. This is only a way to play it to make it sound fuller, not 
the actual way to play it. that other tab covers that)

Intro:
D|-0---0x--0-0x--000x-|
A|-0---0x--0-0x--000x-|
G|-2---2x--2-2x--222x-|
D|-0---0x--0-0x--000x-|
A|-3h5-5x--5-5x--555x-|
D|-0---0x--0-0x--000x-|

Verses:
D|----0-0-----0-0--000--0---0x--0-0x--000x-|
A|----0-0-----0-0--000--0---0x--0-0x--000x-|
G|----2-2-----2-2--222--2---2x--2-2x--222x-|
D|----0-0-----0-0--000--0---0x--0-0x--000x-|
A|-0--0-0--5--5-5--555--3h5-5x--5-5x--555x-|
D|-4--4-4--5--5-5--555--0---0x--0-0x--000x-|

Chorus:
D|-00x--------0-0--000--0---0x--0-0x--000x-|----0-0-----0-0--000--0---0x--0-0x--000x-|
A|-00x--------0-0--000--0---0x--0-0x--000x-|----0-0-----0-0--000--0---0x--0-0x--000x-|
G|-22x--------2-2--222--2---2x--2-2x--222x-|----2-2-----2-2--222--2---2x--2-2x--222x-|
D|-00x--------0-0--000--0---0x--0-0x--000x-|----0-0-----0-0--000--0---0x--0-0x--000x-|
A|-55x---0-5--5-5--555--3h5-5x--5-5x--555x-|-0--0-0--5--5-5--555--3h5-5x--5-5x--555x-|
D|-00x---4-5--5-5--555--0---0x--0-0x--000x-|-4--4-4--5--5-5--555--0---0x--0-0x--000x-|
         ^
  Note the beat change

Interlude:
D|-0-0-0-0-0-0-0-0-0-0-0-0-0-0-0-0-|
A|-0-0-0-0-0-0-0-0-0-0-0-0-0-0-0-0-|
G|-4-4-4-4-4-4-4-4-2-2-2-2-2-2-2-2-|
D|-4-4-4-4-4-4-4-4-0-0-0-0-0-0-0-0-|
A|-2-2-2-2-2-2-2-2-5-5-5-5-5-5-5-5-|
D|-----------------5-5-5-5-5-5-5-5-|

Lyrics:

If I go
Before Im old
Oh, brother of mine
Please don't forget me if I go

Bartender, please
Fill my glass for me
With the wine you gave jesus that set him free
After three days in the ground

Oh, and if I die
Before my time
Oh, sweet sister of mine
Please don't regret me if I die

Bartender, please
Fill my glass for me
With the wine you gave jesus that set him free
After three days in the ground

Bartender, please
Fill my glass for me
With the wine you gave jesus that set him free
After three days in the ground

Im on bended knees, I pray
Bartender, please

When I was young, I didn't think about it
Now I just can't get it off my mind

Im on bended knees
Father, please

If all this gold
Should steal my soul away
Oh, dear mother of mine
Please redirect me if this gold...

Bartender, you see
The wine that's drinking me
Came from the vine that strung judas from the devils tree
Its roots deep, deep in the ground

Bartender, you see
The wine that's drinking me
Came from the vine that strung judas from the devils tree
Its roots deep, deep in the ground
In the ground...

Im on bended knees
Oh, bartender, please

Im on bended knees
Father, please

When I was young, I didn't dream about it
Now I think about it all the time

Im on bended knees
Oh, bartender, please
Bartender, please


************************************

| /   slide up
| \   slide down
| h   hammer-on
| p   pull-off
| ~   vibrato
| +   harmonic
| x   Mute note
| b   Bend
| pb  Pre-bend
| br  Bend release
| pbr Pre-bend release
| brb Bend release bend

************************************
comments
print report bad tab
I want to post or [tab]
guest
You may want to rate the tab now too:
select rating
Please do not post tabs as comments. Select "correction" instead!