Oops, an error
Loading. Please wait.

Crash Into Me Tab

ver4
ver4
More versions @911Tabs.com
9,493 views 3 this week
3 commentsread comments
1 2 3 4 5
poor
x 3
Autoscroll
+/-
esc
set tempo
stop
Hey! There's an official Ultimate Guitar app which is ideal
for learning songs when you're away from computer. Get the app
WARNING: You are trying to view
                                    content from Ultimate-Guitar.com
                                    in an unauthorized application,
                                    which is prohibited.

                                    Please use an official Ultimate
                                    Guitar Tabs application for iPhone,
                                    iPad or Android to access legitimate
                                    chords, guitar, bass, and drum tabs
                                    from Ultimate-Guitar.com database.

                                    Type "ultimate guitar tabs" in Apple
                                    App Store's or Android Market's
                                    search to find the application.
#----------------------------------PLEASE NOTE---------------------------------#
#This file is the author's own work and represents their interpretation of the #
#song. You may only use this file for private study, scholarship, or research. #
#------------------------------------------------------------------------------#


Date: Thu, 21 Nov 1996 02:05:51 +0000
From: wyrpaladyn@worldnet.att.net
Subject: Tab:  


 

Transcribed by Justin Mayer - wyrpaladyn@worldnet.att.net

Just listen to the song a whole bunch of times and you'll see how the
changes I wrote come together.  It's actually quite easy.  The single notes
before a chord is when it goes dah and then the chord so they are played
close together.

E-----9-----9-----9-----9-----------------7----------
B-----9-----9-----9-----9-----------------9----------
G-----9-----9-----9-----9-----------------9----------   REPEAT THROUGHOUT THE 
D-----9-----9-----9-----9-----6-----7-----9----------
A-----x--0--x-----x-----7-----6-----7-----7----------           VERSES
E--9--9-----9--7--9--0--x--4--4--5--5--7--7--0-------

Chorus:   

  Crash   In-to Me      Baby   And I come into (Back into verse)
E-----9-----------0------2-------
B-----9-----------0------2-------
G-----9-----------1------2-------
D-----9-----------2------4-------
A-----X-----------2------4-------
E--9--9--4--5--7--0------2-------

That's about it if you have any questions or don't understand something,
e-mail me.

Justin Mayer - wyrpaladyn@worldnet.att.net




Date: Fri, 13 Dec 1996 01:10:41 -0600
From: Chris Brockland 
Subject: TAB Crash Into Me  BY  Dave Matthews Band

CRASH INTO ME
by Dave Matthews Band

...as found on the Crash CD.


music transcribed by Chris Brockalnd
		     broc6258@uwwvax.uww.edu


I learned this song listening to the CD (at my roomate Jay's request) 
so it is pretty much as is.  You can play it with normal tuning, or 
you can drop the D down to an E if you prefer.


This tab is in normal tuning, I guess since I am lazy, it's easier -
and sounds the same.  If you drop the D, the refrain will have to
be a little different, maybe just play the bass line part.


e +---0-0-0-0------0---|---0-0-0-0------0---|
B +---5-5-5-5------5---|---5-5-5-5------5---|
G +---4-4-4-4------4---|---4-4-4-4------4---|
D +--------------------|--------------------|
A +-------------0------|-2------------------|
E +-4------------------|--------------0-----|

You've got your ball you've got your chain
Tied to me tight tie me up again
Who's got their clas in you my friend
Into your heart I'll beat again
Sweet like candy to my sould
Sweet you rock and sweet you roll
Lost for you I'm so lost for you

And you come crash..
                          
e +----------|--------0-----0--|
B +----------|--------0-----3--|
G +----------|--4--1--1-----2--|  ***That last chord might 
D +-------6--|--7--4--2-----0--|  ***not be right.  
A +-------6--|--7--2--2--------|
E +-0-----4--|--5-----0--------|

         in     to me,       
and I come in to you



***mess around on the 'e' string..
e +--0-0-2-0-0-0-2-|-0-0-0-4-0-0-0-2--|  ***Here you can go back  
B +--5-5-5-5-5-5-5-|-5-5-5-5-5-5-5-5--|  ***to the first part or  
G +--4-4-4-4-4-4-4-|-4-4-4-4-4-4-4-4--|  ***play this.
D +----------------|------------------|
A +----------------|------------------|
E +----------------|------------------|

In a boys dream
In a boys dream.



Touch your lips just so I know
In your eyes, love, it glows so
I'm bare-boned and crazy for you
When you come crash in to me, baby
And I come into you
I am boys dream
In a boys dream

If I've gone overoard
Then I'm beggin you to forgive me
In my haste 
When I'm holding you so girl...
close to me

Oh and you come crash into me, baby
And I come into you
Hike up your skirt a little more and show your world to me
Hike up your skirt a little more and show your world to me
In a boys dream.... in a boys dream

Oh I watch you there through the window 
And I stare at you
Your wear nothing buy you wear it so well
Tied up and twisted, the way I'd like to be
For you, for me, come crash into me




Chris Brockland - Delta Chi
University of Wisconsin - Whitewater
broc6258@uwwvax.uww.edu


Date: Mon, 21 Apr 1997 13:48:06 -0400 (EDT)
From: CookysClan@aol.com

Ok!  I seen some of the already posted versions and none really tell you
much.  So here's how ive seen Dave play it live.  ****hint leave pinky and
ring finger stationary on the 5th fret of the B string and 4th of the G
string while strumming.  Move middle and index finger to appropriate bass
notes.

E----------------------------------------4--------------------------0-------
A-----4----------0-----2------------------x-x-x---0----2--------------2--
D--------2-2-2-----2-----x-x-x-x-x-x----x-x-x------0----x-x-x--------x--
G--------4-4-4-----4-----4-4-4-4-4-----4-4-4-----4----4-4-4------4--
B--------5-5-5-----5-----5-5-5-5-5-----5-5-5-----5----5-5-5------5---
e----leave open or mute either way is fine-----

if that gives you any trouble simply play the bass notes to figure the rhythm
out then its just a matter of getting the strumming pattern down.
 
another part in the song, i wouldn't really call it the chorus, but anyway it
goes like this...
E----------------------------------------------------------------
A----------------------------------------------------------------
D-000000000000000000000000000000000000000000 strumming freely
G-444444444444444444444444444444444444444444
B-555555555555555555555555555555555555555555
e-000000000200000200000000400000002000000000
well, thats that, hope you get it...comments or questions Cookysclan@aol.com



Date: Mon, 09 Dec 1996 21:25:33 -0600 (CST)
From: Pool-Guy 
Subject: TAB: Crash by Dave Matthews Band

------------------
Dave Matthews Band - Crash Into Me
------------------
	Transcribed by Nate Kohl
This is a pretty simple song to play alone acoustically, with more or
less the same chord progression throughout the song:

E-|--0------0-----0-----0-----0----0----0----0-------
b-|--0------0-----0-----0-----0----0----0----0-------
g-|--6------2-----4-----1----------2----4----1-------
d-|--6------2-----4-----2-----6----2----4----2-------
a-|--4------0-----2-----2-----6----0----2----2-------
e-|---------------------0-----4--------------0-------

The above chords are all you need to play it...Of course, there are 
some minor deviations, and a bunch of added instruments and effects.
Get a band together if you want to hear the real thing!
In terms of strumming, here is a tab that should help to get close
to the real thing:

E-|------0--0-------0------0--0-----
B-|------0--0-------0------0--0-----
G-|--6----------2-------4-----------
D-|--6----------2-------4-----------
A-|--4----------0-------2-----------
E-|---------------------------------

Listen to the CD to see what I mean.


Date: Fri, 28 Mar 1997 12:17:17 -0500
From: Barbara Cunningham 

Here is Crash the way I figured it out. The way it was posted earlier
just doesn't sound right.This is the intro/verses:

---------------0-0-0---------0-0-0---------0-0-0---------0-0-0---------0-0-0-----------
---------------0-0-0---------0-0-0---------0-0-0---------0-0-0---------0-0-0-----------
---------------6-6-6---------2-2-2---------4-4-4---------1-1-1---------x-x-x-----------
---------------6-6-6---------2-2-2---------4-4-4---------2-2-2---------6-6-6-----------
----------4----4-4-4----0----0-0-0----2----2-2-2---------2-2-2---------6-6-6-----------
---------------x-x-x---------x-x-x---------x-x-x----0----0-0-0----4----4-4-4-----------

---------------0-0-0---------0-0-0---------0-0-0--------------------------
---------------0-0-0---------0-0-0---------0-0-0--------------------------
---------------2-2-2---------4-4-4---------1-1-1--------------------------
---------------2-2-2---------4-4-4---------2-2-2--------------------------
----------0----0-0-0----2----2-2-2---------2-2-2--------------------------
---------------x-x-x---------x-x-x----0----0-0-0--------------------------

	repeat untill end.

any questions or comments E-mail me at Cunning@Buffnet.net

	Thanks, Michael Cunningham


========================================================================

Date: Tue, 30 Sep 1997 01:25:12 -0400
From: Ian Young 
Subject: Song: Crash

Commentary:
After reading the rest of the tab that's been posted for 
this song, I think I've found what is most likely the _real_
tab. Or, rather, to my ears, it sounds more like the album version.

I will admit that it's quite a finger exercise to try to 
play this, but if you can make the distance, you find that
it's also easier to play this at the correct speed than it
is to play the others, as there's less sliding about.

Tuning: Standard

First off, your fingers go 
here:
  0 1 2 3 4 5 6
e||-|-|-|-|-|-|
b||-|-|-|-|(4)|
g||-|-|-|(3)|-|
d||-|(1)|-|-|-|
a||-|-|-|(2)|-|
e||-|-|-|-|-|-|

e|------0-----0-----0-----
b|------5-----5-----5-----
g|------4-----4-----4-----
d|------2-----2-----2-----
a|--4---x--0--x--2--x-----
e|------x-----x-----x--0-0


Date: Mon, 03 Nov 1997 19:22:04 -0500
From: Stephanie Barnett 
Subject: TAB:  "Crash Into Me" by The Dave Matthews Band

"Crash Into Me"
The Dave Matthews Band
>From the album "Crash"
Words and Music by David Matthews


	This is such a great song to play.  I saw that all of the other 
tab. for this song didn't seem quite right, so I decided to devote 
myself to learning right.  This is my version of the song and I hope it 
is right, if not then could someone please help me?

Intro
----0---0-0-0-----0--0-0-----0--0-0-0-----0--0-0-0-----0--0-0-0
----0---0-0-0-----0--0-0-----0--0-0-0-----0--0-0-0-----0--0-0-0
----4---4-4-4-----4--4-4-----4--4-4-4-----4--4-4-4-----4--4-4-4  
----2---2-2-2-----2--2-2-----2--2-2-2-----2--2-2-2-----2--2-2-2
-4-------------0----------2----------------------------0-------
---------------------------------------0------------4---------- 


-----0--0-0-----0--0-0-0-----0--0-0-0
-----0--0-0-----0--0-0-0-----0--0-0-0
-----4--4-4-----4--4-4-4-----4--4-4-4
-----2--2-2-----2--2-2-2-----2--2-2-2
--0----------2---------------0-------
--------------------------0----------

Chorus

-----0-0---------------0------3--3
-----0-0---------------0------2--2
-----4-4---------------1------3--3
-----2-2---------------2----------
--4--0-----------------2----------
-----------4---5-7-----0----------
"crash               into me.."


--0-0-0-0-0-0-0-0-0                         --0                  --0-0-0
--0-0-0-0-0-0-0-0-7                         --9                  --0-0-0
--9-9-9-9-9-9-9-9-9 (repeat 4x) then go to  --11  then back again--9-9-9
-------------------                         ---                  -------
-------------------                         ---                  -------
-------------------                         ---                  -------
"in a boy's                                 dream"              "in a.."


	If you play this with the song you will see what I mean.  Please 
if I need corrections e-mail me at procura@aye.net.  Have fun and keep 
on jammin'.
comments
We did not receive enough feedback on this tab! Please rate:
print report bad tab
1 2 3 4 5
3 comments total.
0 reply
Justin Rudolph wrote on January 16 2002, 12:00 am

this version sucks. No where close!!

0 reply
billybob41 wrote on March 14 2002, 12:00 am

you must be joking...good try though junior

0 reply
madmonkeyman729 wrote on April 21 2002, 12:00 am

dude, I know you spent a lot of time on this tabe but i think you should have spent i little bit more time on it..its
5
4
0
4

I want to post or [tab]
guest
You may want to rate the tab now too:
select rating
Please do not post tabs as comments. Select "correction" instead!