Oops, an error
Loading. Please wait.

Live At The Red Rocks Tab

6,106 views 6 this week
no commentswrite comment
1 2 3 4 5
not so good
x 6
add to favorites launch autoscroll
font size
0
reset
Autoscroll
+/-
esc
set tempo
stop
Contributor
WARNING: You are trying to view
                                    content from Ultimate-Guitar.com
                                    in an unauthorized application,
                                    which is prohibited.

                                    Please use an official Ultimate
                                    Guitar Tabs application for iPhone,
                                    iPad or Android to access legitimate
                                    chords, guitar, bass, and drum tabs
                                    from Ultimate-Guitar.com database.

                                    Type "ultimate guitar tabs" in Apple
                                    App Store's or Android Market's
                                    search to find the application.
=-=-=-=-=-=-=-=-=-=-=-=-=-=
Dave Matthews Band
Live At The Red Rocks
8.15.1995
All song tabbed by:
Leandro Koren
leandro_koren@yahoo.com.ar
=-=-=-=-=-=-=-=-=-=-=-=-=-=

=-=-=-=-=-=-=-=-=-=-=-=-=-=-=-=
1 – Seek Up
2 – Proudest Monkey
3 – Satellite
4 – Two Steps
5 – The Best Of What’s Around
6 – Recently
7 – Lie In Our Graves
8 – Dancing Nancies
9 – Warehouse
10 – Tripping Billies
11 – Drive In Drive Out
12 – Lover Lay Down
13 – Rhyme & Reason
14 - #36
15 – Ants Marching
16 – Typical Situation
17 – All Along The Watchtower
=-=-=-=-=-=-=-=-=-=-=-=-=-=-=-=

=-=-=-=-=-=-=-=-=-=-=-=-=-=-=
Dave Matthews Band
Seek Up
Remember Two Things (1993)
Live At The Red Rocks (1995)
=-=-=-=-=-=-=-=-=-=-=-=-=-=-=

Intro & Outro & Pre-Chorus:

Intro: Dm C

E|-|----------------------------|-|
B|-|----------------------------|-|
G|-|----------------------------|-|
D|-|-----10-10----12--10-10-----|-|
A|-|--12-------12-----------12--|-|
e|-|----------------------------|-|

...fall back again, fall back again...
Part: Just play this chords and back to the verse.

     Bb  C
E|-|--6--10--|-|
B|-|--6--10--|-|
G|-|--7--9---|-|
D|-|--8--10--|-|
A|-|--8--10--|-|
e|-|--6--8---|-|

Verse:

Sometimes I feel like I'm falling
Fall back again, fall back again,
Fall back again, fall back again 
Oh, life it seems a struggle between
What we think what we see
I'm not going to change my ways
Just to please you or appease you
Inside a crowd, five billion proud
Willing to punch it out
Right, wrong, weak, strong
Ashes to ashes all fall down
Look around about this round
About this merry-go-round around
If at afll God's gaze upon us fall
His mischievous grin, look at him 
Forget about the reasons and
The treasons we are seeking
Forget about the notion that
Our emtions can be swept away
Forget about being guilty,
We are innocent instead
For soon we will all find our lives swept away 
Sit awhile with TV's hungry child
Big belly swelled
Oh, for a price of a coke or a smoke
Keep alive those hungy eyes
Take a look at me, what you see in me,
Mirror look at me
Face it all, face it all again 
Forget about the reasons and
The treasons we are seeking
Forget about the notion that your emtions can be
Wwept away, kept at bay
Forget about being guilty, i am innocent instead
For soon we will all find our lives swept away 

Chorus:

A                  Bm
You seek up an emotion
        G               A(The rest is the same)
And our cup is overflowing
You seek up an emotion,
Sometimes your well is dry
You seek up a big monster
For him to fight your wars for you
But when he finds his way to you, the devil's not
Going--ha, ha

Verse:

Say, say 
Look at me in my fancy car
And my bank account
Oh, how I wish I could take it all down
Into my grave, I'd save
Take a look again, take a look again,
Take a look again
Everyday things change,... stay the same 
Forget about the reasons and
The treasons we are seeking
Forget about the notion that
Your emtions can be swept away
Intentions are not wicked,
Don't be tricked into thinking so
Soon we will all find our lives swept away

Chorus:

You seek up an emotion
And our cup is overflowing
You seek up an emotion,
Sometimes your well is dry
You seek up a big monster
For him to fight your wars for you
But when he finds his way to you,
The devil's not going--ha, ha
Fall back again, fall back again, fall back again...

=-=-=-=-=-=-=-=-=-=-=-=-=-=-=
Dave Matthews Band
Proudest Monkey
Crash (1996)
Live At The Red Rocks (1995)
=-=-=-=-=-=-=-=-=-=-=-=-=-=-=

Intro & Verse & Chorus:
Or just play G# and Cmaj7 along the whole song.

      G#        Cmaj7         G#        Cmaj7
E|-|---------------------|-|---------------------|-|
B|-|---------------------|-|---------------------|-|
G|-|---------------------|-|---------------------|-|
D|-|----6----6----6------|-|----6----6----6------|-|
A|-|------6-----4--------|-|------6-----4--------|-|
e|-|--4-------------4-4--|-|--4-------------4-4--|-|

Verse:

Oh he's standing there in that tree 
Oh I love that's not enough for me. 
So I paved the road to the city, 
And brought the rest of the monkeys. 

See momma see. 
See momma see. 
I'm a small monkey. 
Now I am the proudest monkey that i know. 
Monkey see, monkey do. 
Monkey see, monkey do. 
Monkey see, monkey do. 

When I walk, I walk so tall. 
Not bend up doubled up like the other monkeys that I know. 
Still I dont know if I have a soul, 
Or if heaven's a place to go, 
Or if hell's where we burn, 
Or if sinnin's what we do. 
I'm the smartest monkey that I know. 
Monkey see, monkey do. 
Monkey see. 

This monkey thinks he so great 
Who taught this monkey to burn 
Who taught this monkey to turn 
In the trail with his friends 
We are the proudest monkeys 
We are the proudest monkeys 
You and me are the proudest monkeys 
You and I are the proudest monkeys 
Monkey see monkey do . . . (repeats over and over)

=-=-=-=-=-=-=-=-=-=-=-=-=-=-=-=-=-=
Dave Matthews Band
Satellite
Remember Two Things(1993)
Under The Table And Dreaming(1994)
Live At The Red Rocks (1995)
=-=-=-=-=-=-=-=-=-=-=-=-=-=-=-=-=-=

Intro & Verse:

E|-|--------------------|--------------------|--------------------|-------------------|-|
B|-|--------------------|--------------------|--------------------|-------------------|-|
G|-|--------------------|--------------------|--------------------|-------------------|-|
D|-|--------8-----6-----|--5-----3-----6-----|--------8-----6-----|-5-----3-----6-----|-|
A|-|-----6-----4-----3--|-----1-----4-----3--|-----6-----4-----3--|----1-----4-----3--|-|
e|-|--4-----------------|--------------------|--4-----------------|-------------------|-|

                                                      
E|-|--------------------|--------------------|-----------------------|-|
B|-|--------------------|--------------------|-----------------------|-|
G|-|--------------------|--------------------|-----------------------|-|
D|-|--------8-----6-----|--5-----3-----6-----|--------8-----6-----5--|-|
A|-|-----6-----4-----3--|-----1-----4-----3--|-----6-----4-----3-----|-|
e|-|--4-----------------|--------------------|--4--------------------|-|

Verse:

Satellite in my eyes,
like a diamond in the sky
how I wonder
Satellite strung from the moon
and the world your balloon 
peeping tom for the mother station

Chorus: Ab   Db   Bbmin   Eb

Winter's cold spring erases
and the calm away by the storm is chasen
everything good needs replacing
look up, look down all around, hey satellite

Verse:

Satellite headlines read
someone's secrets you've seen
eyes and ears have been
satellite dish in my yard
tell me more, tell me more
who's the king of your satellite castle?

Lead into bridge:

E|-|----------------------------------|-|
B|-|----------------------------------|-|
G|-|----------------------------------|-|
D|-|--------------------------3----5--|-|
A|-|-----------3----4-----6-----------|-|
E|-|--4---6---------------------------|-|

Bridge: Ab  |  Cm  |  Db  |  Eb

rest high above the cloud; no restriction
television we bounce 'round the world
and while i spend these hours five senses reeling
I laugh about this weatherman's satellite eyes

=-=-=-=-=-=-=-=-=-=-=-=-=-=-=
Dave Matthews Band
Two Steps
Crash (1996)
Live At The Red Rocks (1995)
=-=-=-=-=-=-=-=-=-=-=-=-=-=-=

Intro: Dm

E|-|--10--|--XX--|-|
B|-|--10--|--XX--|-|
G|-|--10--|--10--|-|
D|-|--XX--|--12--|-|
A|-|--XX--|--XX--|-|
e|-|--XX--|--XX--|-|

and 2:40:

      D   Bb C
E|-|-------------|-|
B|-|-------------|-|
G|-|-------------|-|
D|-|--12--8--10--|-|
A|-|--12--8--10--|-|
e|-|--10--6--8---|-|

And just with Dm .

Verse:

Dm  Bb C                        F   Bb Am  Gm
Say my love I came to you with best intentions 
Dm  Bb   C                     F
You laid down and gave to me just what
Bb  Am Gm    F
I'm seeking 
Bb       Am      Gm     F
Say love, watch me now. 

Boyd Solo.

Verse:

You and I, walk into my days love against, 
Behold that this 
No better have I felt than now my love
You drive to distraction.

Second Boyd Solo.

Verse:

You my love do you believe that we might last a thousand years
Or more if not for this,
Our flesh and blood
It ties you and me right up
Tie me down

Chorus:

C         Gm     Bb Am F
Celebrate we will
F           C        Gm        Bb  Am
Cuz life is short but sweet for certain
F            C      Gm     Bb Am F
Hey we climb on two by two
F     C          Gm   Bb Am
To be sure these days continue 
F      Bb Am  Gm  Dm 
Things we can not change, change,  

Verse:

Love and I walk to me like wine comes to that mouth 
Grown tired of water all the time 
You quench my heart and quench my mind. 

Oh And now waiting on the hour 
Comes back to me 
And now with you right by my side 
Well i almost have been alone 
Godsend godsend celbrate we will 
Celebrate we will 
Because life is short but 
Sweet for certain baby 
Climbing two by two 
To be sure these days continue 
The things we cannot 
What about today 
Celebrate we will 
To be sure these days continue 
Climbing two by two 
To be sure these days continue 
Things we cannot change 

Verse:

Oh, my love I came to you 
With best intentions 
You laid down and gave to me 
Just what I'm seeking 
Say love watch me turn wail 

Chorus:

You and me, celebration, 
Oh if you climb a way out of here 
Turn in celebration 
We oh my godsend won't you help me out.

=-=-=-=-=-=-=-=-=-=-=-=-=-=-=-=-=-=
Dave Matthews Band
The Best Of What's Around
Under The Table And Dreaming (1994)
Live At The Red Rocks (1995)
=-=-=-=-=-=-=-=-=-=-=-=-=-=-=-=-=-=

Intro:

Drums
Intro: Am

Hey my friend
C        F            D(triad)
It seems your eyes are troubled
C       Am    F        D(triad)
Care to share your time with me
Am        C                  F
Would you say you're feeling low and so
      C   Am      F                     D(triad)
a good idea would be to get it off your mind

Chorus:

A             C#m
See, you and me
       D                C#m          D
have a better time than most can dream
        A                 E(the rest is the same)
have it better than the best
so can pull on through
whatever tears at us
whatever holds us down
and if nothing can be done
we'll make the best of what's around

Jam:

      A
E|-|------------------------------|-|
B|-|--2----------------2----------|-|
G|-|--2----------------2----------|-|
D|-|--2----------------2----------|-|
A|-|--0----------------0----------|-|
e|-|----3--2--1-----/3---3--2--1--|-|

Turns out not where but who you're with
that really matters
and hurts not much when you're around
and if you hold on tight
to what you think is your thing
you may find you're missing all the rest
well she run up into the light surprised
her arms are open
her mind's eye is

Seeing things from a
better side than most can dream
on a clearer road I feel
oh you could say she's safe
whatever tears at her
whatever holds her down
and if nothing can be done
She'll make the best of what's around

=-=-=-=-=-=-=-=-=-=-=-=-=-=-=
Dave Matthews Band
Recently
Remember Two Things(1993)
Live At The Red Rock(1995)
=-=-=-=-=-=-=-=-=-=-=-=-=-=-=

Intro: 

      Dm  C   Bm  A   Am  G 
E|-|-------------------------|----------------------|----------------------|-|
B|-|-------------------------|----------------------|----------------------|-|
G|-|--10--9----7--6----5--4--|------4-------5-0--0--|------4-------5-4--0--|-|
D|-|--0---0----0--0----0--0--|-------5--3-3-----3---|-------5--3-3-----3---|-|
A|-|--X---X----X--X----X--X--|----------------------|----------------------|-|
e|-|--10--8----7--5----5--3--|--3/5-----------------|--3/5-----------------|-|

Verse:

E|-|----------------------------------|------------------------|-|
B|-|----------------------------------|------------------------|-|
G|-|---------3----------3----------3--|------5-3-2-0-----------|-|
D|-|----5-7--5-----5-7--5-----5-7--5--|------------------------|-|
A|-|---5-------5-5--------5-5---------|--5-----------3/7-3-5---|-|
e|-|--3---------3----------3----------|---3-----------------3--|-|

Verse:

Sunshine on my shoulders makes me happy 
Sunshine almost always make me high 
Look at what we got 
Some people drink, some people don't 
Some people think and some people won't 
Some people like to smoke a bowl and some don't 
Some people do and some people don't 
But its ok cuz it was meant to be that way 
Some people do and some people don't 
Some people do and some people won't 
Some people do, some people don't 
Some people do, some peole don't 

Recently I've been 
All of content and dreaming I have been 
'Cause I been lately seeing 
Quite a bit of this woman live on my street 

People stare and we just ignore and just ignore everything 
People stare and we just ignore them 
And they go away, go away, go away, go away 

She comes to me 
I watch her drink 
I watch her comb her hair 
Both say that we never before have 
Felt as recently 

People stare and we just ignore 
What's the use in hiding out 
She says all the time 
Let their eyes do the worrying 

She and me go to places quiet 
Where we are quite alone 
Kiss and we hold together 
We will be until we done 

People stare and we just ignore 
What's the use in hiding out 
She says all the time 
Let their eyes do the worrying 
Let, oh yeah, yeah

Walking till we both do quite well 
And kissing all the time all the time 
And looking and looking and looking. 

So we dance away around all a row of roses 
We do our best to contain this thing inside everyone 
So fear we fear 
And fear to speak to no one else 
I will give you water if you will share your wine 
I will feed your heart if you promise to feed mine 
'Til we will dance together, 'til the end of time 
'Til the end of time

=-=-=-=-=-=-=-=-=-=-=-=-=-=-=
Dave Matthews Band
Lie In Our Graves
Crash (1996)
Live At The Red Rocks (1995)
=-=-=-=-=-=-=-=-=-=-=-=-=-=-=

Intro & Verses: D G 

      D                            G
E|-|--2-2-2-X----------------------3-3-3--|-|
B|-|--3-3-3-X----------------------3-3-3--|-|
G|-|--2-2-2-X------X--------2------0-0-0--|-|
D|-|--0-0-0-X------X--0-2-4---4----0-0-0--|-|
A|-|--0-0-0---4-2--X---------------2-2-2--|-|
e|-|---------------X------------3--3-3-3--|-| X 3

And this one before Dave starts to sing.

      D            C
E|-|--2-2-2-X------0-0-0-0--|-|
B|-|--3-3-3-X------1-1-1-1--|-|
G|-|--2-2-2-X------0-0-0-0--|-|
D|-|--0-0-0-X------2-2-2-2--|-|
A|-|--0-0-0-X-4-2--3-3-3-3--|-|
e|-|------------------------|-|

Verse:

When I step into the light
My arms are open wide
When I step into the light
My eyes searching wildly
Would you not like to be
Sitting on top of the world with you legs hanging free
Would you not like to be ok, ok, ok?
When I'm walking by the water
Splish splash me and you taking a bath
When I'm walking by the water
Come up through my toes
To my ankles
To my head
To my soul
I'm blown away

      D                Am
E|-|--2-2--------------0-0------------------|-|
B|-|--3-3--------------1-1------------------|-|
G|-|--2-2-------2------2-2--0h2p0-0---------|-|
D|-|--0-0---0-4---4-0--2-2-----------4-2-4--|-|
A|-|-------------------0-0------------------|-|
e|-|----------------------------------------|-| X 4

First Jam(Or Violin solo):

      C  D  C  D  Am  Bm   C Bm  C  D  C  D   Am Bm C  Bm
E|-|--0--2--0--2---0---2---0--2--0--2--0--2---0--2--0--2--|-|
B|-|--1--3--1--3---1---3---1--3--1--3--1--3---1--3--1--3--|-|
G|-|--0--2--0--2---2---4---0--4--0--2--0--2---2--4--0--4--|-|
D|-|--2--0--2--0---2---4---2--4--2--0--2--0---2--4--2--4--|-|
A|-|--3--0--3--0---0---2---3--2--3--0--3--0---0--2--3--2--|-|
e|-|------------------------------------------------------|-|

Verse:

When I'm walking by the water
Splish splash me and you taking a bath
When I'm walking by the water
Come up through my toes
To my ankles
To my head
Down my soul
I'm blown away

Second Jam(Or Saxo solo):

      D C#m Bm  G    A       Em  Bm  A D/F# G
E|-|--------------------|-|-----------------|-|
B|-|--7--5--3-----------|-|--8--3-----------|-|
G|-|--7--6--4--4-4---6--|-|--9--4--6--2--4--|-|
D|-|--7--6--4--0-0---2--|-|--9--3--2--0--0--|-|
A|-|--5--4--2--2-2---4--|-|--7--2--4--0--2--|-|
e|-|-----------3-3---5--|-|--------5--2--3--|-|

Or 
     D  D/C# D/B           Em Bm  A  D/F# G
E|-|--2--2--2----------|-|-------------------|-|
B|-|--3--3--3----------|-|--8--3-------------|-|
G|-|--2--2--2--4-4--6--|-|--9--4--6--2-2--4--|-|
D|-|--0--0--0--0-0--0--|-|--9--3--2--0-0--0--|-|
A|-|-----4--2--2-2--4--|-|--7--2--4--0-0--2--|-|
e|-|-----------3-3--5--|-|--------5--2-2--3--|-|


The same as the verse:

I can't believe that we would lie in our graves
Wondering if we had spent out living days well
I can't believe that we would lie in our graves
Dreaming of things that we might have been

Would you not like to be
I can't believe that you would not like to be
Ok, ok, ok
Ok, ok, ok

End: E A

E|-|--0--0--|-|
B|-|--0--2--|-|
G|-|--1--2--|-|
D|-|--2--2--|-|
A|-|--2--0--|-|
e|-|--0--X--|-|

=-=-=-=-=-=-=-=-=-=-=-=-=-=-=-=-=-=
Dave Matthews Band
Dancing Nancies
Under The Table And Dreaming (1994)
Live At The Red Rocks (1995)
=-=-=-=-=-=-=-=-=-=-=-=-=-=-=-=-=-=

Intro & Verses:

      G       F#          G
E|-|----------------------------|-|
B|-|----------------------------|-|
G|-|----------------------------|-|
D|-|---5----5----4------4----5--|-|
A|-|----------------------------|-|
e|-|--3----3--2-2------2--3-3---|-|

Verse:

Well...
Don't you ever wonder
Maybe if things had been slightly different
You could be somebody else
Don't you wonder
Maybe if you took a left turn instead of taking it right
You could be somebody different
Don't you ever wonder
Could i have been
Don't you ever wonder anyone
Dont you ever wonder
Well god could Ihave been
Don't you ever wonder anyone, anyone, anyone
Could I have been
A parking lot attendant
Could I have been
A millionaire in Bel Air
Could I have been Lost somewhere at Red Rocks
Could I have been
Your little sister
Could I have been 
Anyone other than me 
Could I have been 
Anyone other than me 
Could I have been 
Anyone other than me 
Could I have been 
Anyone 

Playing Chords: G F#

He stands touch his hair his shoes untied 
Tongue gaping stare 
Could I have been a magnet for money? 
Could I have been anyone other than me? 

Twenty three and so tired of life 
Such a shame to throw it all away 
The images grow darker still 
Could I have been anyone other than me? Then I 

Chorus:

A              D		    A
look up at the sky my mouth is open wide
lick and taste what's the use in hurrying
what's the use in worrying
D	    F#		   G
Turn, turn we almost become dizzy

Verse:

I am who I am who I am who am I 
Requesting some enlightenment 
Could I have been anyone other than me? Then I 

Bm		    D  		 A		
sing and dance i'll play for you tonight
		F#7sus4	
the thrill of it all
Bm		D		A	
dark clouds may hang over me sometimes
		F#7sus4
but i'll work it out

Look up at the sky 
My mouth is open wide, lick and taste 
What's the use in worrying, what's the use in hurrying 
Turn, turn we almost become dizzy 

Falling out of a world of lies 
Could I have been dancing Nancy 
Dancing Nancy . . . 
Could I have been anyone other than me? 
Sing and dance la, la, la, hey la, la, la, hey, la, la, la 
Sing and dance la, la, la, hey la, la, la, hey, la, la, la 

Sing and dance I'll play for you tonight 
The thrill of it all 
Dark clouds may hang on me sometimes 
But i'll work it out 
Look up at the sky 
My mouth is open wide, lick and taste 
What's the use in worrying, what's the use in hurrying 
Turn, turn we almost become dizzy

=-=-=-=-=-=-=-=-=-=-=-=-=-=-=-=-=-=
Dave Matthews Band
Warehouse
Under The Table And Dreaming (1994)
Live At The Red Rocks (1995)
=-=-=-=-=-=-=-=-=-=-=-=-=-=-=-=-=-=

Intro & Verse:

      B     F# D
E|-|---------------------------|---------------------------|-|
B|-|--0-0-0-0-0----------------|--0-0-0-0-0----------------|-|
G|-|--4-4-4-4-4----------------|--4-4-4-4-4----------------|-|
D|-|--4-4-4-4-4---XXXXXXXXXXX--|--4-4-4-4-4---XXXXXXXXXXX--|-|
A|-|--2-2-2-4-5---X5X5X4X2XXX--|--2-2-2-4-5---X5X5X4X2XXX--|-|
e|-|---------------------------|---------------------------|-|

Hey reckless mind
Don't throw away your playful beginnings
You and I will fumble around in the touches
And be sure to

Pre-Chorus: A D D/G

Leave all the lights on
And the black cat changing colors
And you can walk under ladders
And swim as the tide turns you around and around

Verse:

Hey we have found
Becoming one in a million
Slip into the crowd
This question I found in the gap in the sidewalk

Pre-Chorus:

Keep all your sights on
And if the the black cat changes colors
I can walk under ladders
And swim as the tides choose to turn me

Chorus: B    E      F#   E

And here I sit
Life goes on, end of tunnel, TV set
Spot in the middle
Static fade, statistical bit
And soon I fade away, I fade away

This I admit 
Seems so good, hard to believe an end to it 
Smell touch feel 
How could this rhythm ever quit 
Bags packed on a plane 
Hopefully to heaven, yeah. 

Verse:

Shut up I'm thinking
I had a clue now it's gone forever
Sitting over these bones
You can read in whatever you're needing to

Pre-Chorus:

Keep all your sights on
The big bad black cat that's
Changing colors
Well it's not the colors that matter
But that they'll all fade away

Chorus:

And life goes on, end of tunnel, TV set
Spot in the middle
Static fade, statistical bit
And soon I'll fade away, I fade away

This I admit
Seems so full
Hard to believe an end to it
Warehouse is bare
Nothing at all inside of it
Walls and halls have disappeared, they've disappeared

Sax Solo: With chorus chords.

My love I love to stay here
My love I love to stay here
My love I love to stay here
Such a simple thing to get
If things could be better than this
Many have changes and they have come
In the warehouse
The warehouse
The warehouse
In the warehouse, my love I love to stay here
The warehouse, time is of the moment
The warehouse, wouldn't you love to stay here every man

Thats how they come down here
Born from the hands of angels
Then trickle into the ground
Warehouse buried down deep

=-=-=-=-=-=-=-=-=-=-=-=-=-=-=
Dave Matthews Band
Tripping Billies
Remember Two Things (1993)
Crash (1996)
Live At The Red Rocks (1995)
=-=-=-=-=-=-=-=-=-=-=-=-=-=-=

Intro:
Dave[Acoustic]

E|-|-------|---------------|-----------|-------|---------------|-----------|-|
B|-|-------|---------------|-----------|-------|---------------|-----------|-|
G|-|--2-4--|--2-4-7-6-2-4--|--2-4-6-7--|--2-4--|--2-4-7-6-2-4--|--2-4-6-7--|-|
D|-|--0-0--|--0-0-0-0-0-0--|--0-0-0-0--|--0-0--|--0-0-0-0-0-0--|--0-0-0-0--|-|
A|-|-------|---------------|-----------|-------|---------------|-----------|-|
e|-|--2-3--|--2-3-7-5-2-3--|--2-3-5-7--|--2-3--|--2-3-7-5-2-3--|--2-3-5-7--|-|


[Figure 1]:

      A B
E|-|-------|-|
B|-|-------|-|
G|-|--6-7--|-|
D|-|--0-0--|-|
A|-|-------|-|
e|-|--5-7--|-|

[Figure 2]:

 |-| D/F# G A Bm |

E|-|-----------|-|
B|-|-----------|-|
G|-|--2-4-6-7--|-|
D|-|--0-0-0-0--|-|
A|-|-----------|-|
e|-|--2-3-5-7--|-|

You got to do it quickly.

Verse:

A        D   
We were above
G                 D            A 
You were standing underneath us
        D       G      [Figure 1]
We were not yet lovers
A            D     
Dragons were smoked
G          D               
Bumblebees were stinging us
A    D           G     [Figure 1]
I was soon to be crazy

Bridge:

     D          A     [Figure 2]
Eat drink and be merry
    D        A     [Figure 2]
For tomorrow we die
     D          A     [Figure 2]
Eat drink and be merry
    D        A     [Figure 2]
For tomorrow we die
Cause of tripping Billies

Boyd Solo: Like Verse

Verse II:

We're wearing nothing
Nothing but our shadows
Shadows falling down on the beach sand
Remembering once, out on the beaches
We wore pineapple grass bracelets

Chorus:

So why would you care
To get out of this place
You and me and all our friends
Such a happy human race
Cause of tripping Billies

Intro

Bridge:

     D          A      [Figure 2]
Eat drink and be merry
    D        A      [Figure 2]
For tomorrow we die
     D          A      [Figure 2]
Eat drink and be merry
    D        A      [Figure 2]
For tomorrow we die
Cause of tripping Billies

Boyd Solo: Like verse.

Verse III:

We are all sitting
Legs crossed around a fire
My yellow flame she dances
Tequila drinking, oh, our minds will wander
To wondrous places

Chorus:

So why would you care
To get out of this place
You and me and all our friends
Such a happy human race

Bridge:

Eat drink and be merry
For tomorrow we'll die
Eat drink and be merry
For tomorrow we'll die
(Check it out, Boyd)

Boyd Solo. Like Bridge

Bridge:

Eat drink and be merry
For tomorrow we'll die
Eat drink and be merry
For tomorrow we'll die
Eat drink and be merry
For tomorrow we'll die
Eat drink and be merry
For tomorrow we'll die

Outro: Intro.

Chords:

      A    D/F#   G     Bm    D
E|-|--0--|--2--|--3--|--2--|--2--|-|
B|-|--2--|--3--|--0--|--3--|--3--|-|
G|-|--2--|--2--|--4--|--4--|--2--|-|
D|-|--2--|--0--|--0--|--4--|--0--|-|
A|-|--0--|-----|--2--|--2--|-----|-|
e|-|-----|--2--|--3--|-----|-----|-|

Or other kind of chords:

      A    D/F#   G     Bm    D
E|-|-----|-----|-----|-----|-----|-|
B|-|-----|-----|-----|-----|-----|-|
G|-|--6--|--2--|--4--|--7--|--2--|-|
D|-|--0--|--0--|--0--|--0--|--0--|-|
A|-|-----|-----|-----|-----|-----|-|
e|-|--5--|--2--|--3--|--7--|-----|-|

=-=-=-=-=-=-=-=-=-=-=-=-=-=-=
Dave Matthews Band
Drive In Drive Out
Crash (1996)
Live At Red Rocks (1995)
=-=-=-=-=-=-=-=-=-=-=-=-=-=-=

Intro & Verses:

E|-|----------------------|----------------------|----------------------|-|
B|-|----------------------|----------------------|----------------------|-|
G|-|----------------------|----------------------|----------------------|-|
D|-|----5-4---------------|----5-4---------------|----5-4---------------|-|
A|-|--------5-4-5--4h5-0--|--------5-4-5--4h5-0--|--------5-4-5--4h5-0--|-|
e|-|--5-------------------|----------------------|----------------------|-|

                G5   A5
E|-|---------|----------|-|
B|-|---------|----------|-|
G|-|---------|----------|-|
D|-|--5-4-0--|--5-5--7--|-|
A|-|---------|--5-5--7--|-|
e|-|---------|--3-3--5--|-|

And for the verse:
You can play just G5 and A5 or the hard way like the intro.
I think the lyrics are not from this version.

Verse:

I hear more than I like to...
so I boil my head in a sense of humor...
I laugh at what I cannot change...
I throw it all on the pyre again...go then and do this
I'd do it for you...
when all that I want is so badly to be...
by myself again...
it's going to drive me right out of my brain

Chorus:

G              D             A
Drive in drive out I'm leaving
Drive in drive out
I'll come back again
Drive in drive out I'm leaving
Drive in drive out


I don't care if we all turn to waste... 
so when I beg... you avoid me... because I smell of dirt... hungry,
hungry boy... you won't leave me all alone... the boy won't go

Verse:

Sooner or later we're done 
Sooner or later I'm gone 
because, because 
Sooner or later we're gone 
Sooner away 

Ooh, my head is pounding now...god has all but left me behind... 
not a sense of worry...I'm going to drive in and drive out again 

Chorus:

Drive in drive out I'm leavin 
Drive in drive out I'll come 
Drive in drive out I'm leavin 
Drive in drive out 

I'm over this arrangement... 
around here...emptiness 
sounded so good...I want to 
drive you right into my world 

Drive in drive out I'm leavin 
Drive in drive out I'll come 
Drive in drive out I'm leavin 
Drive in drive out 

First Jam:

E|-|-------------|-------------|---------------|-----------|------------|-|
B|-|-------------|-------------|---------------|-----------|------------|-|
G|-|-------------|-------------|---------------|-----------|------------|-|
D|-|----------0--|--1-2-3------|------0-1-2-3--|-----------|--0-1-2-3---|-|
A|-|--0-1-2-3----|--------0-1--|--2-3----------|--0-1-2-3--|---------0--|-|
e|-|-------------|-------------|---------------|-----------|------------|-|

E|-|-------------|-------------|-------------|-|
B|-|-------------|-------------|-------------|-|
G|-|-------------|-------------|-------------|-|
D|-|--------0-1--|--2-3--------|----0-1-2-3--|-|
A|-|--1-2-3------|------0-1-2--|--3----------|-|
e|-|-------------|-------------|-------------|-|

E|-|-------------|-------------|--------------|-----------|-----------|-|
B|-|-------------|-------------|--------------|-----------|-----------|-|
G|-|-------------|-------------|--------------|-----------|-----------|-|
D|-|----------0--|--1-2-3------|------0-1-2-3-|-----------|-0-1-2-3---|-|
A|-|--0-1-2-3----|--------0-1--|--2-3---------|--0-1-2-3--|--------0--|-|
e|-|-------------|-------------|--------------|-----------|-----------|-|

E|-|-------------|-------------|-|
B|-|-------------|-------------|-|
G|-|-------------|-------------|-|
D|-|--------0-1--|--2-3--------|-|
A|-|--1-2-3------|------0-1-2--|-|
e|-|-------------|-------------|-|

Big Jam:

E|-|-----------------------------------------------|-|
B|-|-----------------------------------------------|-|
G|-|-----------------------------------------------|-|
D|-|--------7--5-4------------------------------7--|-|
A|-|-----7----------7-5----------5-----5-----7-----|-|
e|-|--5------------------8-7--3-----3-----5--------|-|

E|-|-----------------------------------------------|-|
B|-|-----------------------------------------------|-|
G|-|-----------------------------------------------|-|
D|-|--------7--5-4------------------------------7--|-|
A|-|-----7----------7-5----------5-----5-----7-----|-|
e|-|--5------------------8-7--3-----3-----5--------|-|

=-=-=-=-=-=-=-=-=-=-=-=-=-=-=-=-=-=
Dave Matthews Band
Lover Lay Down
Under The Table And Dreaming (1994)
Live At Red Rocks (1995)
=-=-=-=-=-=-=-=-=-=-=-=-=-=-=-=-=-=

Intro & Verses: D/F# G A Bm

E|-|---------------------------------------|-|
B|-|---------------------------------------|-|
G|-|------2--------4---------6--7----------|-|
D|-|------0--------5---------7--7----------|-|
A|-|---------------------------------------|-|
e|-|--(2)------(3)------(5)----(7)-7-5-5/2-|-|

Another way to play it:

E|-|---------------------------|-|
B|-|---------------------------|-|
G|-|--2/4---4/6---6/7----------|-|
D|-|--0/0---0/0---0/0----------|-|
A|-|---------------------------|-|
e|-|--2/3---3/5---5/7-7-5-5/2--|-|

()Accentuate this note.
You can use complete chords if you want.
This is just the basic.

Verse:

Spring sweet rhythm dance in my head,
slip into my lover's hands,
kiss me won't you kiss me now,
and sleep I would inside your mouth.
Don't be us too shy,
for knowing it's no big surprise,
that I will wait for you,
I will wait for no one but you.

Chorus:

      A  E/G# G  Bm
E|-|--0---0---3---2--|-|
B|-|--2---5---0---3--|-|
G|-|--2---4---0---4--|-|
D|-|--2---2---0---4--|-|
A|-|--0---X---2---2--|-|
e|-|--X---4---3---X--|-|

A                E/G#
Oh please lover lay down
G                    Bm
spend this time with me
            A         E/G#
Together share this smile
            G   Bm  A
Lover lay down

Dave sometimes plays the Bm like this:

      Bm
E|-|-----------|-|
B|-|----3-2-0--|-|
G|-|--4-4-4-0--|-|
D|-|--4--------|-|
A|-|-----------|-|
e|-|-----------|-|

Verses:

Walk with me, walk with you,
hold my hands your hands,
so much we have dreamed,
and you were so much younger,
hard to explain that we are stronger.

Chorus:
A                     E/G#
A million reasons life to deny
G                    
let's toss them away
 Bm  
see you and me we
A
lay down look see
E/G#
she and he
G                 Bm
by my lover's side
                       A
Together share this smile
            E/G#          G  Bm
each other's tears to cry
            A
Together share this smile
           E/G#
lover lay down

Verse:

oh please oh please
please lover lay down
oh please lover lay down
and you weep lover lay down
cause it's over lover lay down
could I love you
could you love me
could I love you
could you love me
could I love you
could you love me
could I love you
darling it's all the same
all the same, all the same, all the same...
'til we dance away

Sax Solo: Like verse.

chasing me all around
leading me all around
leading me all around in circles
say..., say.....

Ending:

    (Harm.)
E|-|---------|-|
B|-|---------|-|
G|-|----(7)--|-|
D|-|---(7)---|-|
A|-|--(7)----|-|
e|-|---------|-|

=-=-=-=-=-=-=-=-=-=-=-=-=-=-=-=-=-=
Dave Matthews Band
Rhyme & Reason
Under The Table And Dreaming (1994)
Live At The Red Rocks (1995)
=-=-=-=-=-=-=-=-=-=-=-=-=-=-=-=-=-=

Intro & Verses:

E|-|-------------------------------|-|
B|-|-------------------------------|-|
G|-|--------3--------------9----7--|-|
D|-|--3/5-0--0---5----7------------|-|
A|-|-------------------------------|-|
e|-|--------------6--8---8----6----|-|

Verse:

Oh well oh well so here we stand
but we stand for nothing
my heart calls to me in my sleep
how can i turn to it
'cause i'm all locked up in this 
dark place
and i do not know i'm as good as dead 
my head aches
warped and tied up i need to kill this pain

Chorus:

      G       C  Bb  Am7
E|-|--3-------0---1------|-|
B|-|--3-------1---3------|-|
G|-|--0-------0---3---5--|-|
D|-|--0-[X3]--2---3---5--|-|
A|-|--2-------3---1---X--|-|
e|-|--3-------X---X---5--|-|


My head won't leave my head alone
and I don't believe it will
until I'm dead and gone
my head won't leave my head alone
and I don't believe it will
until I'm six feet underground

Verse:

How long I'm tied up
my mind in knots
my stomach reels in concern for what I might do or
what i've done
it's got me living in fear
Well I know these voices must
be my soul I've had my grave
lying wired and shut and quiet in my grave

Chorus:

My head won't leave my head alone
and I don't believe it will
until I'm dead and gone
my head won't leave my head alone
and I don't believe it will
until I'm six feet underground
lying wired and shut and quiet in my grave
leave me here
leave it to me to waste here

Verse:

So young and here i am again
talking to myself
a tv blares
oh man
oh how I wish I didn't smoke
or drink to reason with my head 
but sometimes this thick confusion
grows until I cannot bear it all
needle to the vein
needle to the vein
take this needle from my vein my friend
I said 
in my grave
lying, lying cold in my grave
the reason, my reason
take my head off this terror
the fearing won't come back 
I can't see my mind's all wiped clean
the needle
make my great escape
I seem caught in time
my head leaves me behing
body fall cold
And I have seen heaven.

=-=-=-=-=-=-=-=-=-=-=-=-=-=-=
Dave Matthews Band
#36
Live At The Red Rocks (1995)
Tabbed by Leandro Koren
leandro_koren@yahoo.com.ar
=-=-=-=-=-=-=-=-=-=-=-=-=-=-=

Drum's Solo.

Intro & Verse & Chorus: F C

      F         C             F         C             F         C
E|-|-----------------------|-----------------------|-----------------------|-|
B|-|-----------------------|-----------------------|-----------------------|-|
G|-|----10-9--7----9-7-----|----10-9--7----9-7-----|----10-9--7----9-7-----|-|
D|-|------------10-----10--|------------10-----10--|------------10-----10--|-|
A|-|--8--------------------|--8--------------------|--8--------------------|-|
e|-|-----------------------|-----------------------|-----------------------|-|
      F         C
E|-|------------------|-|
B|-|------------------|-|
G|-|----10-9--7----7--|-|
D|-|------------10----|-|
A|-|--8---------------|-|
e|-|------------------|-|

Verse:

Yeah I scream... 
With you on my mind so heavy and so hard 
I don't know quite everything 
You make me think of a better thing... 
Better things to fill my day with 
But they don't mean to go 
Please don't be too bad with me, God 
Please don't be too good... 
Let some women's light, women's light 
Chain my hands with me singing... 

Chorus:

Honey, honey come and dance for me 
Whoa, whoa, sooner there 
Honey, honey, come and dance for me 
Only the brave 
Honey, honey come and dance for me 
(feeling the night) 
Honey, honey, come and dance for me 
Lead me back home to life 

Verse:

You made Heaven turn to dirt 
And dirt turn to dance on 
Heaven come my way 
Baby surely do 
Maybe some moonlight 
Maybe some, baby surely do 
Maybe some moonlight 
Say this say this... 

Chorus:

Honey, honey, come and dance for me 
Underneath the moonlight 
Honey, honey, come and dance for me 
Honey, honey come and dance for me 
Come on, come on go 
Honey, honey, come and dance for me 
Give it back, give it back.... 

Verse:

Oh man, I can't talk 
A man was tall and once tore a piece of freedom for us all 
When, then, you least expect it 
Man can cut from of his own heart 
For us all, that man 
Don't believe it, oh yeah...  
God, two men slice and dice each other up in his place 
They don't believe it... 
Well leave it 
Leave it lying, leave it lying, leave it lying 
Got me singing 

Chorus:

Honey, honey, come and dance for me...


=-=-=-=-=-=-=-=-=-=-=-=-=-=-=-=-=-=
Dave Matthews Band
Ants Marching
Remember Two Things (1993)
Under The Table And Dreaming (1994)
Live At Red Rocks (1995)
=-=-=-=-=-=-=-=-=-=-=-=-=-=-=-=-=-=

Intro & Verse:

      [0:11]                                [Figure 1]

E|-|-------------------------------------------------|-|
B|-|--10-10--10-10-10----10-10-10-10--10---10-10-10--|-|
G|-|--10h11--10h11-12----11h12-11h12--11---10h11-12--|-|
D|-|-------------------------------------------------|-|
A|-|-------------------------------------------------|-|
e|-|-------------------------------------------------|-|

E|-|-------------------|-|
B|-|--10-10-10-10--10--|-|
G|-|--11h12-11h12--11--|-|
D|-|-------------------|-|
A|-|-------------------|-|
e|-|-------------------|-| do this many times

[Figure 1]:

      D
E|-|--10-10--|-|
B|-|--10-10--|-|
G|-|--11-11--|-|
D|-|---------|-|
A|-|---------|-|
e|-|---------|-|

Until guitar here:

E|-|------------------------------------|-|
B|-|--3-1--------------3-1--------------|-|
G|-|------4-2--------------4-2----------|-|
D|-|----------5-4-2-0----------5-4-2-0--|-|
A|-|------------------------------------|-|
e|-|------------------------------------|-|

The notes that followed that was played by the bass.

Intro[Guitar]:

      D                      G
E|-|--2-----------------|-|--3-------------------|-|
B|-|--3-----------------|-|--3-------------------|-|
G|-|--2-----------------|-|--0-------------------|-|
D|-|--0------4-----4----|-|--0------5-----5h7/5--|-|
A|-|-----4/5---4/5---5--|-|--2--4/5---4/5--------|-|
e|-|--------------------|-|--3-------------------|-|

[0:57] Sax Solo
[1:17] Intro Again
[2:21] Start to sing

Verse I:
D                      G
He wakes up in the morning
D                      G                  D
does his teeth bite to eat and he's rolling
never changes a thing
the week ends the week begins
she thinks, we look at each other
wondering what the other is thinking
but we never say a thing
and these crimes between us grow deeper

Goes to visit his mommy,
she feeds him well his concerns he forgets them,
and remembers being small,
playing under the table and dreaming.

Chorus:

   Bm    D      G   A
Take these chances,
   Bm         D    G   A       Bm      D
place them in a box until a quieter time,
G      A          D
Lights down you up and die.

Verse:

Driving along on this highway,
all these cars and upon the sidewalk,
people in every direction,
no words exchanged, no time to exchange and when,

Bridge:

E|-|-----------0--|-|
B|-|-----------0--|-|
G|-|---4---4---0--|-|
D|-|---0---0---2--|-|
A|-|---2---2---2--|-|
e|-|---3---2---0--|-|

All the little ants are marching,
Red and black antennae waving,
They all do it the same,
They all do it the same way.

Verse:

Candyman tempting the thoughts of a,
sweet tooth tortured by weight loss,
program cutting the corners,
loose end, loose end cut cut,
on the fence, not to offend,
cut, cut, cut, cut.

Chorus:

Take these chances,
place them in a box until a quieter time,
lights down you up and die,
lights down you up and die.

=-=-=-=-=-=-=-=-=-=-=-=-=-=-=-=-=-=
Dave Matthews Band
Typical Situation
Under The Table And Dreaming (1994)
Live At Red Rocks (1995)
=-=-=-=-=-=-=-=-=-=-=-=-=-=-=-=-=-=


First Intro: [star just playing the chords] Em Cmaj7

Then the real intro:
This is the way dave play it.

    
      Em                              Cmaj7
E|-|-------------------------------------------------------------------|-|
B|-|-------------------------------------------------------------------|-|
G|-|-------------------------------------------------------------------|-|
D|-|---10-10-10-10-10--10-10-10-10-10--10-10-10-10-10--10-10-10-10-10--|-|
A|-|-----9--9--9--9------9--9--9--9------9--9--9--9------9--9--9--9----|-|
e|-|--0---------------0---------------8---------------8----------------|-|

      Em
E|-|-----------------------------------|-|
B|-|-----------------------------------|-|
G|-|-----------------------------------|-|
D|-|---10-10-10-10-10--10-10-10-10-10--|-|
A|-|----9--9--9--9-------9--9--9--9----|-|
e|-|--0---------------0----------------|-|

other version:

      Em                    Cmaj7                 Em
E|-|---------------------------------------------------------------------|-|
B|-|---0-0-0-0-0--0-0-0-0-0--0-0-0-0-0--0-0-0-0-0--0-0-0-0-0--0-0-0-0-0--|-|
G|-|----0-0-0-0----0-0-0-0----0-0-0-0----0-0-0-0----0-0-0-0----0-0-0-0---|-|
D|-|--2----------2-------------------------------------------------------|-|
A|-|------------------------3---------3-----------2----------2-----------|-|
e|-|---------------------------------------------------------------------|-|

or:

      Em                           Cmaj7
E|-|----------------------------|----------------------------|-|
B|-|----------------------------|----------------------------|-|
G|-|----4-4-4-4-4----4-4-4-4-4--|----4-4-4-4-4----4-4-4-4-4--|-|
D|-|-----5-5-5-5------5-5-5-5---|-----5-5-5-5------5-5-5-5---|-|
A|-|----------------------------|--3------------3------------|-|
e|-|--0------------0------------|----------------------------|-|

Dave may play the verse chords like this:

      Em  Cmaj7
E|-|----------|-|
B|-|----------|-|
G|-|----------|-|
D|-|--10--10--|-|
A|-|--9---9---|-|
e|-|--0---8---|-|

Verse I:

Em
Ten fingers counting we have each
Cmaj7
nine planets around the sun repeat
Em
eight ball is the last if you triumphant be
Cmaj7
seven oceans pummel the shores of the sea
Em
it's a typical situation 
                     Cmaj7
in the typical times
too many choices
Em
it's a typical situation 
                     Cmaj7
in the typical times
too many choices

Chorus:
     G
Well everybody's happy
     F
everybody's free
     Am
we'll keep the big door open
 C                  D(Triad)
Everyone'll come around
G                    F
Why are you different
                     Am
Why are you that way
                     C                     
if you don't get in line
            D(Triad)
we'll lock you away

Verse II:(Same as the other verse)

All comes down to nothing
Six senses feeling,
five around a sense of self,
four seasons turn on and turn off.
I can see,
three corners from this corner,
two is a perfect number,
but one.

Chorus:

     G
Well everybody's happy
               F
everybody's free
                         Am
we'll keep the big door open
 C                  D(Triad)
Everyone'll come around
G                    F
Why are you different
                     Am
Why are you that way
    C                     
if you don't get in line
            D(Triad)
we'll lock you away
     G
Well everybody's happy
               F
everybody's free
                         Am
we'll keep the big door open
 C                  D(Triad)
Everyone'll come around
G                    F
Why are you different
                     Am
Why are you that way
    C                     
if you don't get in line
            D(Triad)
we'll lock you away

Intro
All comes down to nothing

Verse III:

it's a typical situation 
in these typical times
we can't do a thing about it
it's a typical situation 
in these typical times
too many choices
we can't do a thing about it
too many choices
it's a typical situation 
in these typical times
too many choices

Chorus:

     G
Well everybody's happy
               F
everybody's free
                         Am
we'll keep the big door open
 C                  D(Triad)
Everyone'll come around
G                    F
Why are you different
                     Am
Why are you that way
    C                     
if you don't get in line
            D(Triad)
We'll lock you away

Chorus X 1
     G
Well everybody's happy
               F
Everybody's free
                         Am
We'll keep the big door open
 C                  D(Triad)
Everyone'll come around
G                    F
Why are you different?
                     Am
Why are you that way?
    C                     
If you don't get in line
            D(Triad)
We'll gonna put you away
    C                     
If you don't get in line
            D(Triad)
We'll lock you away

Intro & End.

End:

[]: Natural harmonic.
       
     (Harm.)
       Em
E|-|--[12]--|-|
B|-|--[12]--|-|
G|-|--[12]--|-|
D|-|--------|-|
A|-|--------|-|
e|-|--------|-| many times.

=-=-=-=-=-=-=-=-=-=-=-=-=-=-=
Dave Matthews Band
All Along the Watchtower
Recently EP
Lyrics & Music: Bob Dylan
Live At The Red Rocks (1995)
=-=-=-=-=-=-=-=-=-=-=-=-=-=-=

Intro & Verse: | Am | G  | F  | G |

The intro pattern is use for the first verse.

      Am   |G         | F                     |
E|-|--------------------------------------------|-|
B|-|--------------------------------------------|-|
G|-|--------------------------------------------|-|
D|-|--------------------------X-----------------|-|
A|-|--------------------------X-----------------|-|
e|-|--5--5--0h3-3-0-3----0h1--X--0h1--0h3/5--5--|-|

Verse I:

Am             G                F          G
There must be some kind of way out of here
Am        G             F   G
Said the joker to the thief
Am                G         F G
"There's too much confusion,
Am        G         F G
I can't get no relief
Am            G             F
Businessmen, they drink my wine,
         G
Plowmen dig my earth
Am           G          F   G
None of them along the line
Am         G           F      G
Know what any of it is worth"

Verse II:

This other pattern for verses two.

       Am     G      F        F/G  G   G/Am
E|-|-----------------------------------------|-|
B|-|-----------------------------------------|-|
G|-|-----------------------------------------|-|
D|-|---7-7----5-5----3-X-----------5-5-------|-|
A|-|---7-7----5-5----3-X------3/5--5---5/7---|-|
e|-|---5-5--0h3-3--0h1-X--1---1/3--3---3/5---|-|

      Am     G      F
E|-|---------------------|-|
B|-|---------------------|-|
G|-|--5-5----4-4----2-X--|-|
D|-|--7-7----5-5----3-X--|-|
A|-|--7-7----5-5----3-X--|-|
e|-|--5-5--0h3-3--0-1-X--|-|

"No reason to get excited"
The thief he kindly spoke
"There are many here among
Us who feel that life is but a joke
But, you and I, we've been through that
And this is not our fate
So let us not talk falsely now,
Because the hour is getting late"

Verse III:

Use open chords.

    | Am | G | F | G | Am |

E|-|--0----3---1---3---0----|-|
B|-|--1----3---1---3---1----|-|
G|-|--2----0---2---0---2----|-|
D|-|--2----0---3---0---2----|-|
A|-|--0----2---3---2---0----|-|
e|-|-------3---1---3--------|-|

All Along the Watchtower
Princes kept their view
While other women came and went
Barefoot servants, too
Outside in the cold distance
A wild cat did growl
Two riders were approaching
And the wind began to howl.

Dave's part:

A lot of palm muting and silences. Here you need rhythm.

      Am5     |   G5     |   F5 | F5(8°)  | G5

       pm...        pm...          pm...
E|-|----------------------------------------------|-|
B|-|----------------------------------------------|-|
G|-|------------------------------10-X-10---------|-|
D|-|--7-7--7-X---5-5-5--5-X--3----10-X-10--5---5--|-|
A|-|--7-7--7-X---5-5-5--5-X--3-----8-X-8---5---5--|-|
e|-|--5-5--5-X---3-3-3--3-X--1-------------3---3--|-|

      Am5    |   G5      |   F5 | F5(8°)  | G5
       Pm...        pm...          pm...
E|-|----------------------------------------------|-|
B|-|----------------------------------------------|-|
G|-|------------------------------10-X-10---------|-|
D|-|--7-7--7-X---5-5-5--5-X--3----10-X-10--5---5--|-|
A|-|--7-7--7-X---5-5-5--5-X--3-----8-X-8---5---5--|-|
e|-|--5-5--5-X---3-3-3--3-X--1-------------3---3--|-|

      Am5     |     G5     |    F5|F5(8°)|C5 |G5
E|-|-----------------------------------------------|-|
B|-|-----------------------------------------------|-|
G|-|---------------------------------10---5--------|-|
D|-|--7--X-X-X------5-5-5--X-X--3----10---5---5----|-|
A|-|--7--X-X-X------5-5-5--X-X--3--3-/8---3---5----|-|
E|-|--5--X-X-X--0h3-3-3-3--X-X--1-------------3----|-|

      Am5        |  G5    |F5    | C5 | G5
                            pm...    
E|-|-----------------------------------------|-|
B|-|-----------------------------------------|-|
G|-|-------------------------------5---------|-|
D|-|--7--7--X-7--X--5-X-5--3--X-3--5--X--5---|-|
A|-|--7--7--X-7--X--5-X-5--3--X-3--3--X--5---|-|
e|-|--5--5--X-5--X--3-X-3--1--X-1-----X--3---|-|

Then Tim's solo:
 
I love this solo, I love the way he play it.
These are just the notes, listen to it and the find the bends and all the stuff.

With overdrive and delay in some parts.    

E|-|-----------------------------|---------------------------------|-|
B|-|----10----12-13--15b/17------|----10-----12-13/15-15----8-10b--|-|
G|-|--9----9---------------------|--9----9-------------------------|-|
D|-|-----------------------------|---------------------------------|-|
A|-|-----------------------------|---------------------------------|-|
e|-|-----------------------------|---------------------------------|-|

E|-|--------------------------------------------------------------------|-|
B|-|----10----12-13-15-17b-17b-17b-17b-17b-17b-17b-17b--13-15-13---15---|-|
G|-|--9----9------------------------------------------------------------|-|
D|-|--------------------------------------------------------------------|-|
A|-|--------------------------------------------------------------------|-|
e|-|--------------------------------------------------------------------|-|
         Full
E|-|----15b--------15h17b--17b--17-19-20-20--|--17h19/20----------------------|-|
B|-|--17-----15h17---------------------------|------------17h19/20------------|-|
G|-|-----------------------------------------|----------------------17h19/21--|-|
D|-|-----------------------------------------|--------------------------------|-|
A|-|-----------------------------------------|--------------------------------|-|
e|-|-----------------------------------------|--------------------------------|-|
                               This parts has a lot of delay
                               I tabbed it the best I could.
E|-|--------------------------|-----------------------------|-|
B|-|--------------------------|----------------------17-----|-|
G|-|--------------------------|---------------17h19-----19--|-|
D|-|--17h19/20----------------|--------17h19----------------|-|
A|-|---------------17h19/20---|--17h19----------------------|-|
e|-|--------------------------|-----------------------------|-|

E|-|----17-17-20-17--17-20-17--17-20-17-17--17-20-17-17b--17-20-17-17--|-|
B|-|--17---------------------------------------------------------------|-|
G|-|-------------------------------------------------------------------|-|
D|-|-------------------------------------------------------------------|-|
A|-|-------------------------------------------------------------------|-|
e|-|-------------------------------------------------------------------|-|

And then continue with this:

E|-|--17-19-20-22--22b-22b-22b-22b--|-|
B|-|--------------------------------|-|
G|-|--------------------------------|-|
D|-|--------------------------------|-|
A|-|--------------------------------|-|
e|-|--------------------------------|-|

For the next part it's hard to tab it beacuse is hard to hear.

There's another part like this before Dave start to sings:

E|-|--15/17-15/17-15/17-15/17--|-|
B|-|---------------------------|-|
G|-|---------------------------|-|
D|-|---------------------------|-|
A|-|---------------------------|-|
e|-|---------------------------|-|

Verse IV:
Same as the other three verses.

All along the watchtower
Princes kept their view
While other women came and went
Barefoot servants, too
Outside in the cold distance
A wild cat did growl
Two riders were approaching
And the wind began to howl.

Then just play with the original notes: Am G F

And...

...''No reason to get excited''.

End on Am.

''Tim Reynolds on the guitar''.

=-=-=-=-=-=-=-=-=-=-=-=-=-=-=-=-=-=-=-=-=-=-=-=-=-=-=-=-=-=-=-=-=-=-=
All song by Dave Matthews Band, except ‘‘All Along The Watchtower’’,
By Bob Dylan.
=-=-=-=-=-=-=-=-=-=-=-=-=-=-=-=-=-=-=-=-=-=-=-=-=-=-=-=-=-=-=-=-=-=-=
I want to post or [tab]
guest
You may want to rate the tab now too:
select rating
Please do not post tabs as comments. Select "correction" instead!