Oops, an error
Loading. Please wait.

Rapunzel Tab

ver1
ver1

Whole song

More versions @911Tabs.com
14,992 views 21 this week
no commentswrite comment
1 2 3 4 5
excellent!
x 9
Autoscroll
+/-
esc
set tempo
stop
Hey! There's an official Ultimate Guitar app which is ideal
for learning songs when you're away from computer. Get the app
WARNING: You are trying to view
                                    content from Ultimate-Guitar.com
                                    in an unauthorized application,
                                    which is prohibited.

                                    Please use an official Ultimate
                                    Guitar Tabs application for iPhone,
                                    iPad or Android to access legitimate
                                    chords, guitar, bass, and drum tabs
                                    from Ultimate-Guitar.com database.

                                    Type "ultimate guitar tabs" in Apple
                                    App Store's or Android Market's
                                    search to find the application.
-=-=-=-=-=-=-=-=-=-=-=-=-=-=-=-=-=-=-=
Dave Matthews Band                         
Rapunzel                               
Before This Crowded Streets                
Tabbed By Leandro Koren                    
leandro_koren@yahoo.com.ar                 
-=-=-=-=-=-=-=-=-=-=-=-=-=-=-=-=-=-=-=

Intro:

E|-|--------------------------------|-|
B|-|--------------------------------|-|
G|-|----------------------9-----7---|-|
D|-|-----------3---5----7-----5-----|-|
A|-|--5-5-5-5-----------------------|-|
e|-|--------------------------------|-| X 4

[Figure 1]:
Before Dave start to sing.

      C C/B C C/B C C/B 
E|-|--------------------|-|
B|-|--------------------|-|
G|-|--------------------|-|
D|-|--5--5--5--5--5--5--|-|
A|-|--3--2--3--2--3--2--|-|
e|-|--------------------|-|

Verse:

     Gaad2 C5  F5  C5
E|-|-----------------|-|
B|-|-----------------|-|
G|-|-----------------|-|
D|-|--5---5-------5--|-|
A|-|--2---3---3---3--|-|
e|-|--3-------1------|-|

''I Do me best for you''part: [Figure 1]

      C C/B C C/B C C/B 
E|-|--------------------|-|
B|-|--------------------|-|
G|-|--------------------|-|
D|-|--5--5--5--5--5--5--|-|
A|-|--3--2--3--2--3--2--|-|
e|-|--------------------|-|

Gaad2   C5
Open wide
   F5            C5
oh so good I'll eat you
Gaad2          C5
Take me for a ride
F5               C5
In your sweet delicious
 Gaad2          C5
Perfect little mouth
 F5          C5
Thereupon I linger
Gaad2             C5
You will have no doubt
[Figure 1]
I'll do my best for you
Love
Let's stop to get going
Lost my self just thinking
About the two of us
From each other drinking
Begin with the lips
Fingertips and kissing
Turn me inside out
I do my best for you
Lip and down we go
From the top you push
This is such a thrill
Love is love and dancing
Shake your tambourine
You blow my head open
One thing I'm sure
I do my best for you I do
For you I would crawl
Through the darkest dungeon
Climb the castle wall
If you are my Rapunzel

[Figure 2]:

Tim's guitar:

E|-|------------|-|
B|-|------------|-|
G|-|-----7------|-|
D|-|--7/9--9-7--|-|
A|-|------------|-|
e|-|------------|-|

You let your hair down
Right through your window
Good they locked the door
I do my best for you

Intro 4 times and then:

Bridge:

       Dm5 Bb    C    Dm5  Bb   C
E|-|--------------------------------------|-|
B|-|--------------------------------------|-|
G|-|---7--------------7-------------------|-|
D|-|---7--------------7-------------------|-|
A|-|---5----5----7----5----5----7---------|-|
E|-|---X----6----8----X----6----8---------|-|

 Dm5    Bb       C    Dm5
I think my world of you
       Bb       C    Dm5
All of my heart I do
       Bb         C         Dm5
Blood through my veins for you
       Bb       C     Dm5
You alone have all of me
       Bb       C    Dm5
I give my world to you
       Bb       C    Dm5
To you I will be true

Intro X 4 .

Verse:

Too good to be real
Smell of something cooking
My soul you're to steal
Food of love we're filling
What you've given me
For it there's no measure
Of one thing I am sure
I'll give me best for you

Brdige:

I think my world for you
All of my heart I do
Blood through my veins for you
You alone have all of me
From you my strength is full
To carry you burdens too
I give my world to you
Hip lock up so tight
You drive me crazy
Crazy is allright
With you looking at me
You make me fell high
Every single thing you do to me
Is like I'm drunk
I do my best for you, I do.

Sax Solo: With the verse chords.
comments
print report bad tab
I want to post or [tab]
guest
You may want to rate the tab now too:
select rating
Please do not post tabs as comments. Select "correction" instead!