Oops, an error
Loading. Please wait.

Remember Two Things Tab

7,851 views 9 this week
1 commentread comment
1 2 3 4 5
excellent!
x 2
add to favorites launch autoscroll
font size
0
reset
Autoscroll
+/-
esc
set tempo
stop
Contributor
WARNING: You are trying to view
                                    content from Ultimate-Guitar.com
                                    in an unauthorized application,
                                    which is prohibited.

                                    Please use an official Ultimate
                                    Guitar Tabs application for iPhone,
                                    iPad or Android to access legitimate
                                    chords, guitar, bass, and drum tabs
                                    from Ultimate-Guitar.com database.

                                    Type "ultimate guitar tabs" in Apple
                                    App Store's or Android Market's
                                    search to find the application.
=-=-=-=-=-=-=-=-=-=-=-=-=-=-=-=-=-=
Dave Matthews Band
Remember Two Things
All songs tabbed by Leandro Koren
Any questions mail me to:
leandro_koren@yahoo.com.ar
=-=-=-=-=-=-=-=-=-=-=-=-=-=-=-=-=-=

=-=-=-=-=-=-=-=-=-=-=-=-=-=-=-=-=-=
1 – Ants Marching
2 – Tripping Billies
3 – Recently
4 – Satellite
5 – One Sweet World
6 – The Song That Jane Likes
7 – Minarets
8 – Seek Up
9 – I’ll Back You Up*
10 – Christmas Song
=-=-=-=-=-=-=-=-=-=-=-=-=-=-=-=-=-=

=-=-=-=-=-=-=-=-=-=-=-=-=-=-=-=-=-=
1 – Ants Marching
=-=-=-=-=-=-=-=-=-=-=-=-=-=-=-=-=-=

Intro:
Drums.

All instruments together:

E|-|---------------------------------------------------------------|-|
B|-|--10-10--10-10--10-10-10----10-10-10-10--10---10-10--10-10-10--|-|
G|-|--10h11--10h11--10h11-12----11h12-11h12--11---10h11--10h11-12--|-|
D|-|---------------------------------------------------------------|-|
A|-|---------------------------------------------------------------|-|
e|-|---------------------------------------------------------------|-|

E|-|-------------------|-|
B|-|--10-10-10-10--10--|-|
G|-|--11h12-11h12--11--|-|
D|-|-------------------|-|
A|-|-------------------|-|

Intro & Verse:

      D                    G
E|-|--2-----------------|--3-------------------|-|
B|-|--3-----------------|--0-------------------|-|
G|-|--2-----------------|--0-------------------|-|
D|-|--0------4-----4----|--0------5-----5------|-|
A|-|-----4h5---4h5---5--|--2--4h5---4h5---5/7--|-|
E|-|--------------------|--3-------------------|-|

Verse:

He wakes up in the morning,
does his teeth bite to eat and he's rolling,
never changes a thing,
the week ends the week begins.
She thinks, we look at each other,
wondering what the other is thinking,
but we never say a thing,
and these crimes between us grow deeper.

Violín thing:

E|-|-------------------------------7--8--10--7--8------7---------|-|
B|-|---7--8--10--7--8-----7------------------------10-----8--10--|-|
G|-|-------------------9-----7--9--------------------------------|-|
D|-|-------------------------------------------------------------|-|
A|-|-------------------------------------------------------------|-|
e|-|-------------------------------------------------------------|-|
 
X 3

And then:

E|-|-----------------------------7------7--9--7--9--10-----------|-|
B|-|------7--8--7--8--10--8--10-----10---------------------------|-|
G|-|---9---------------------------------------------------------|-|
D|-|-------------------------------------------------------------|-|
A|-|-------------------------------------------------------------|-|
e|-|-------------------------------------------------------------|-|

Verse:

Take these chances,
place them in a box until a quieter time,
lights down, you up and die.
Goes to visit his mommy,
she feeds him well his concerns he forgets them,
and remembers being small,
playing under the table and dreaming.

Chorus:

   Bm    D      G   A
Take these chances,
   Bm         D    G   A       Bm      D
place them in a box until a quieter time,
G      A          D
Lights down you up and die.

Verse:

Driving along on this highway,
all these cars and upon the sidewalk,
people in every direction,
no words exchanged, no time to exchange and when,

Bridge:

E|-|-----------0--|-|
B|-|-----------0--|-|
G|-|---4---4---0--|-|
D|-|---0---0---2--|-|
A|-|---2---2---2--|-|
e|-|---3---2---0--|-|

all the little ants are marching,
red and black antennae waving,
they all do it the same,
they all do it the same way.

Verse:

Candyman tempting the thoughts of a,
sweet tooth tortured by weight loss,
program cutting the corners,
loose end, loose end cut cut,
on the fence, not to offend,
cut, cut, cut, cut.

Chorus:

Take these chances,
place them in a box until a quieter time,
lights down you up and die,
lights down you up and die.

=-=-=-=-=-=-=-=-=-=-=-=-=-=-=-=-=-=
2 – Tripping Billies
=-=-=-=-=-=-=-=-=-=-=-=-=-=-=-=-=-=

Intro:

E|-|-------|---------------|-----------|-|
B|-|-------|---------------|-----------|-|
G|-|--2-4--|--2-4-7-6-2-4--|--2-4-6-7--|-|
D|-|--0-0--|--0-0-0-0-0-0--|--0-0-0-0--|-|
A|-|--X-X--|--X-X-X-X-X-X--|--X-X-X-X--|-|
e|-|--2-3--|--2-3-7-5-2-3--|--2-3-5-7--|-| X2

Figure 1:

E|-|-------|-|
B|-|-------|-|
G|-|--2-4--|-|
D|-|--0-0--|-|
A|-|--X-X--|-|
e|-|--2-3--|-|

Verse:

A        D   
We were above
G                 D            A 
You were standing underneath us
        D       G      [Figure 1]
We were not yet lovers
A            D     
Dragons were smoked
G          D               
Bumblebees were stinging us
A    D           G     [Figure 1]
I was soon to be crazy

Chorus:

Figure 2:

E|-|-----------|-|
B|-|-----------|-|
G|-|--2-4-6-7--|-|
D|-|--0-0-0-0--|-|
A|-|-----------|-|
e|-|--2-3-5-7--|-|

     D          A     [Figure 2]
Eat drink and be merry
    D        A     [Figure 2]
For tomorrow we die
     D          A     [Figure 2]
Eat drink and be merry
    D        A     [Figure 2]
For tomorrow we die
Cause of tripping Billies

Boyd Solo: Like Verse

Verse II:

We're wearing nothing
Nothing but our shadows
Shadows falling down on the beach sand
Remembering once, out on the beaches
We wore pineapple grass bracelets

Chorus:

So why would you care
To get out of this place
You and me and all our friends
Such a happy human race
Cause of tripping Billies

Intro

Chorus:

     D          A      [Figure 2]
Eat drink and be merry
    D        A      [Figure 2]
For tomorrow we die
     D          A      [Figure 2]
Eat drink and be merry
    D        A      [Figure 2]
For tomorrow we die
Cause of tripping Billies

Boyd Solo: Like verse.

Verse III:

We are all sitting
Legs crossed around a fire
My yellow flame she dances
Tequila drinking, oh, our minds will wander
To wondrous places

Chorus:

So why would you care
To get out of this place
You and me and all our friends
Such a happy human race

Chorus:

Eat drink and be merry
For tomorrow we'll die
Eat drink and be merry
For tomorrow we'll die
(Check it out, Boyd)

Boyd Solo. Like Bridge

Chorus:

Eat drink and be merry
For tomorrow we'll die
Eat drink and be merry
For tomorrow we'll die
Eat drink and be merry
For tomorrow we'll die
Eat drink and be merry
For tomorrow we'll die

Outro: Intro.

=-=-=-=-=-=-=-=-=-=-=-=-=-=-=-=-=-=
3 – Recently
=-=-=-=-=-=-=-=-=-=-=-=-=-=-=-=-=-=

Intro: 

      Dm  C   Bm  A   Am  G    3 times this part       After the verse
E|-|-------------------------|----------------------|-----------------------|-|
B|-|-------------------------|----------------------|-----------------------|-|
G|-|--10--9----7--6----5--4--|------4-------5-0--0--|------4-------5-3-2-0--|-|
D|-|--0---0----0--0----0--0--|-------5--3-3-----3---|-------5--3-3----------|-|
A|-|--X---X----X--X----X--X--|----------------------|-----------------------|-|
e|-|--10--8----7--5----5--3--|--3/5-----------------|--3/5------------------|-|

Verse:

E|-|-----------------|--------------|-|
B|-|-----------------|--------------|-|
G|-|----4-----5---0--|--4-----5--0--|-|
D|-|------5-3---3----|----5-3---3---|-|
A|-|-----------------|--------------|-|
e|-|--3--------------|--------------|-|

Verse:

Recently I've been
All of content and dreaming I have been
'Cause I been lately seeing
Quite a bit of this woman live on my street

People stare and we just ignore everything
People stare and we just ignore them
And they go away, go away

She comes to me
I watch her drink
I watch her comb her hair
Both say that we never before have
Felt as recently

People stare and we just ignore
What's the use in hiding out
She says all the time
Let their eyes do the worrying about

She and me go to places quiet
Where we are quite alone
Kiss and we hold together
We will be until we done

People stare and we just ignore
What's the use in hiding out
She says all the time
Let their eyes do the worring about

Both say the we never before
Never before have felt as recently
People stare and we just ignore everything
People stare and we just ignore them
And they go away, go away


=-=-=-=-=-=-=-=-=-=-=-=-=-=-=-=-=-=
4 – Satellite
=-=-=-=-=-=-=-=-=-=-=-=-=-=-=-=-=-=

Intro & Verses:

E|-|--------------------|--------------------|--------------------|-------------------|-|
B|-|--------------------|--------------------|--------------------|-------------------|-|
G|-|--------------------|--------------------|--------------------|-------------------|-|
D|-|--------8-----6-----|--5-----3-----6-----|--------8-----6-----|-5-----3-----6-----|-|
A|-|-----6-----4-----3--|-----1-----4-----3--|-----6-----4-----3--|----1-----4-----3--|-|
e|-|--4-----------------|--------------------|--4-----------------|-------------------|-|

                                                      
E|-|--------------------|--------------------|-----------------------|-|
B|-|--------------------|--------------------|-----------------------|-|
G|-|--------------------|--------------------|-----------------------|-|
D|-|--------8-----6-----|--5-----3-----6-----|--------8-----6-----5--|-|
A|-|-----6-----4-----3--|-----1-----4-----3--|-----6-----4-----3-----|-|
e|-|--4-----------------|--------------------|--4--------------------|-|

Verse:

Satellite in my eyes,
Like a diamond in the sky
How I wonder
Satellite strung from the moon
And the world your balloon 
Peeping tom for the mother station

Chorus: Ab |  Db  | Bbm  | Eb

Winter's cold spring erases
And the calm away by the storm is chasen
Everything good needs replacing
Look up, look down all around, hey satellite

Verse:

Satellite headlines read
Someone's secrets you've seen
Eyes and ears have been
Satellite dish in my yard
Tell me more, tell me more
Who's the king of your satellite castle?

Chorus:

Winter's cold spring erases
And the calm away by the storm is chasen
Everything good needs replacing
Look up, look down all around, hey satellite

Lead into bridge:

E|-|-----------------------------------|-|
B|-|-----------------------------------|-|
G|-|-----------------------------------|-|
D|-|-------------------------(3)--(5)--|-|
A|-|-----------3----4-----6------------|-|
E|-|--4---6----------------------------|-|

Bridge: Ab  |  Cm  |  Db  |  Eb

Rest high above the cloud; no restriction
Television we bounce 'round the world
And while I spend these hours five senses reeling
I laugh about this weatherman's satellite eyes


=-=-=-=-=-=-=-=-=-=-=-=-=-=-=-=-=-=
5 – One Sweet World
=-=-=-=-=-=-=-=-=-=-=-=-=-=-=-=-=-=

Intro:

     Cm   Bb  Ab                Bb   Ab   Cm   Bb  Ab                Bb   Ab
E|-|------------------------------------|------------------------------------|-|
B|-|--4---------------------------------|--4---------------------------------|-|
G|-|--5----7--5------------5h7--7-7--5--|--5----7--5------------5h7--7-7--5--|-|
D|-|--5----8--6-----0---3/5-----8-8--6--|--4----8--6-----0---3/5-----8-8--6--|-|
A|-|--3----8--6--------3--------8-8--6--|--3----8--6--------3--------8-8--6--|-|
e|-|-------6--4---4-------------6-6--4--|-------6--4---4-------------6-6--4--|-|

       D#    Bb                    D#   Bb
E|-|--------------------------|--------------------------|-|
B|-|--------------------------|--------------------------|-|
G|-|-----8-7--8/10-10-XXX-XX--|-----8-7--8/10-10-XXX-XX--|-|
D|-|-----8-8--8/10-10-XXX-XX--|-----8-8--8/10-10-XXX-XX--|-|
A|-|---6--------------XXX-XX--|---6--------------XXX-XX--|-|
e|-|---------6----------------|---------6----------------|-| many times

Verse:

E|-|--------------------------|--------------------------|-|
B|-|--------------------------|--------------------------|-|
G|-|-----8-7--8/10-10-XXX-XX--|-----8-7--8/10-10-XXX-XX--|-|
D|-|-----8-8--8/10-10-XXX-XX--|-----8-8--8/10-10-XXX-XX--|-|
A|-|---6--------------XXX-XX--|---6--------------XXX-XX--|-|
e|-|---------6----------------|---------6----------------|-|

Verse:

Nine planets round the sun
Only one does the sun embrace
Upon this watered one
So much we take for granted

Chorus: Cm Bb Ab

E|-|--X--X--X--|-|
B|-|--4--X--X--|-|
G|-|--5--7--5--|-|
D|-|--5--8--6--|-|
A|-|--3--8--6--|-|
E|-|--X--6--4--|-|

So let us sleep outside tonight
Lay down in our mother's arms
For here we can rest safely

Verse:

If green should slip to grey
But our hearts still bloody be
And if mountains crumble away
And the rivers dry 
Would it stop the stepping feet?

Bridge:

E|-|-----------------------------------------------|-|
B|-|--------------6--8---------------------8----6--|-|
G|-|--8--7--8-----7--8--7-----8--7--5------8----7--|-|
D|-|--10-8--10----7--8--8-----10-8--6------8----7--|-|
A|-|--10-8--10----5--6--8-----10-8--6-4/6--6--5-5--|-|
e|-|--8--6--8-----------6-----8--6--4--------------|-|

Take all that we can get
When it's done
Nobody left to bury here
Nobody left to dig the holes
And here we can rest safely
One sweet world 
Around a star is spinning
One sweet world 
And in her breath I'm swimming
And here we will rest in peace


=-=-=-=-=-=-=-=-=-=-=-=-=-=-=-=-=-=
6 – The Song That Jane Likes
=-=-=-=-=-=-=-=-=-=-=-=-=-=-=-=-=-=

Intro: D

E|-|--2--|-|
B|-|--3--|-|
G|-|--2--|-|
D|-|--0--|-|
A|-|-----|-|
e|-|-----|-|

Chorus:

D      C     F        D 
And in plays to write the wire in 
Am
I'll come back again
D        C    F       D
Torching time talking rhymes in
Am
I'll come back again

¡Hey!

Break: G C Am F(I don't remember how many times)
It's the bass line.

Verse:

G     C        Am    F     D
Would you like to play?
G      C            Am
With a thought of a friend 
Am   F       D
In a distant passing stage.
G     C       Am      F      D
While you lie around
G         C            Am
With your hands up and out
F                    D
So resigned you will fall down

G         C     Am         F      D
While all you around here play
G        C       Am        F      D
Wild on the warm and far away
G         C     Am         F 
While all you around here play
Em            Am     
The days keep scribbling themselves 

F
In tidy lines
G         C       Am      F    D
Would you like to play?
G       C            Am
With a fool holding hands
Am        F          D
With a one-eyed jack of spades
G         C       Am         F       D
While all on the deck they sing
G   C                 Am         F     D
All of the captain's cards are kings       still
G  C        Am      F       Em
He and the queen are lost at sea
Am              F       
I hope it isn't you and me.
G           C       Am    F     D
And I'll be back 'round again
G         C       Am        F      D
Yes I'll walk in time with you old friend
G          C      Am    F 
And we'll find that place
Em          Am
That we had danced in so long ago

Chorus:

D      C        F         D
And In plays to write the wire in 
Am
I'll come back again
D        C       F         D
Torching time talking rhymes in 
Am
I'll come back again
F           Am
With this resigned
F          Am
the letter I'll sign

End: |  C  |  D  |  C  |  E  |  E  |  G  |


=-=-=-=-=-=-=-=-=-=-=-=-=-=-=-=-=-=
7 – Minarets
=-=-=-=-=-=-=-=-=-=-=-=-=-=-=-=-=-=

Intro:                      Verses:

E|-|----------------------|--------------------|--------------------|-|
B|-|--------9h10h9--------|--------------------|--------------------|-|
G|-|--9-10--9----9--10-9--|--------------------|--4--2-1--1/3--2-1--|-|
D|-|--9-9-----------9--9--|--9--7-6--6/7--7-6--|--2--2-2--2/4--2-2--|-|
A|-|----------------------|--7--7-7--7/8--7-7--|--0--0-0------------|-|
e|-|----------------------|--0--0-0------------|--------------------|-|

Santa Maria choose your children
Santa Maria virgin child
All our wars over you we are fighting
And all our time faith justifying

Lead Thing:

E|-|----------------------------------------------------------|-|
B|-|----------------------------------------------------------|-|
G|-|----------------------------------------------------------|-|
D|-|--------11--9--7--6--5--4----------------6h7p6------------|-|
A|-|-----9------------------------7--8-------------8-7--------|-|
E|-|--7--------------------------5---------------------5---7--|-|


Brother caged Babylon will fall
Sister chained and bound, beaten and bleeding
The tv's on, to me this explains it
Wearing a tie like daddy speaks it
Screaming from the minarets
Later on we'll all be dancing 
Screaming from the minarets
Yes indeed i'm making faces
Rain on the ground in a space 
God has grown
Alone till a man looking glass in his hand 
He is holding up to you
What you see 
What you see 
What you see 
What you see is human
Screaming from the minarets


=-=-=-=-=-=-=-=-=-=-=-=-=-=-=-=-=-=
8 – Seek Up
=-=-=-=-=-=-=-=-=-=-=-=-=-=-=-=-=-=

Intro:

E|-|----------------------------|-|
B|-|----------------------------|-|
G|-|----------------------------|-|
D|-|-----10-10----12--10-10-----|-|
A|-|--12-------12-----------12--|-|
e|-|----------------------------|-|

...fall back again, fall back again...
Part: Just play this chords and back to the verse.

E|-|--6--10--|-|
B|-|--6--10--|-|
G|-|--7--9---|-|
D|-|--8--10--|-|
A|-|--8--10--|-|
e|-|--6--8---|-|

Verse:

Sometimes I feel like I'm falling
Fall back again, fall back again,
Fall back again, fall back again

Oh, life it seems a struggle between
What we think what we see
I'm not going to change my ways
Just to please you or appease you
Inside a crowd, five billion proud
Willing to punch it out
Right, wrong, weak, strong
Ashes to ashes all fall down
Look around about this round
About this merry-go-round around
If at all God's gaze upon us fall
His mischievous grin, look at him

Forget about the reasons and 
The treasons we are seeking 
Forget about the notion that 
Our emotions can be swept away 
Forget about being guilty, 
We are innocent instead 
For soon we will all find our lives swept away 

Sit awhile with TV's hungry child 
Big belly swelled 
Oh, for a price of a coke or a smoke 
Keep alive those hungry eyes 
Take a look at me, what you see in me, 
Mirror look at me 
Face it all, face it all again 

Forget about the reasons and 
The treasons we are seeking 
Forget about the notion that
Your emotions can be 
Wept away, kept at bay 
Forget about being guilty, I am innocent instead 
For soon we will all find our lives swept away 

Chorus:
Just Chords: A Bm G A

You seek up an emotion 
And our cup is overflowing 
You seek up an emotion, 
Sometimes your well is dry 
You seek up a big monster 
For him to fight your wars for you 
But when he finds his way to you, the devil's not 
Going--ha, ha 

Say, say 

Verse:

Look at me in my fancy car 
And my bank account 
Oh, how I wish I could take it all down 
Into my grave, I'd save 
Take a look again, take a look again, 
Take a look again 
Everyday things change,... stay the same 

Forget about the reasons and 
The treasons we are seeking 
Forget about the notion that 
Your emtions can be swept away 
Intentions are not wicked, 
Don't be tricked into thinking so 
Soon we will all find our lives swept away 

Chorus:

You seek up an emotion 
And our cup is overflowing 
You seek up an emotion, 
Sometimes your well is dry 
You seek up a big monster 
For him to fight your wars for you 
But when he finds his way to you, 
The devil's not going--ha, ha 
Fall back again, fall back again, fall back again...


=-=-=-=-=-=-=-=-=-=-=-=-=-=-=-=-=-=
9 – I’ll Back You Up
=-=-=-=-=-=-=-=-=-=-=-=-=-=-=-=-=-=

Verse:

A                     E/G#  F#m
 I remember thinking
I'll go on forever only knowing
      E
I'll see you again
But I know
The touch of you is so hard to remember
But like that touch I know no other 
And for sure we have danced
In the risk of each other
Would like to dance
Around the world with me 
I'll be falling all about my own thing
And I know your the heaviest weight
When your not here that's hung
Around my head

Chorus:

      A F#m G  E
E|-|--0--2--X--0--|-|
B|-|--2--2--X--0--|-|
G|-|--2--2--X--1--|-|
D|-|--2--4--5--2--|-|
A|-|--0--4--2--2--|-|
E|-|--X--2--3--0--|-|

And your lips burn wild
Thrown from the face of a child
And in your eyes
The seeing of the greatest few
Do what you will, always
Walk where you like, your steps
Do as you please, I'll back you up 

Verse:

I remember thinking
Sometimes we walk
Sometimes we run away
But I know
No matter how fast we are running
Somehow we keep
Somehow we keep up with each other 
I'll be falling all about my own thing
And I know your the heaviest weight
When your not here that's hung
Around my head

Chorus:

And your lips burn wild
Thrown from the face of a child
And in your eyes
The seeing of the greatest few
Do what you will, always
Walk where you like, your steps
Do as you please, I'll back you up

Tim's Solo:

E|-|-------------------------|------------------------|------------------------|
B|-|-------------------------|------------------------|------------------------|
G|-|-------------------------|------------------------|------------------------|
D|-|--2-----2--2--2-----2----|----2--4-----6-----6^---|-4--h6------------------|
A|-|-------------------------|------------------------|------------------------|
E|-|-------------------------|------------------------|------------------------|

E|-|------------------------|--------------------------|------------------------|
B|-|------------------------|--------------------------|------------------------|
G|-|------------------------|--------------------------|------------------------|
D|-|-------2--4--6--6--6----|--4-h6---4-----4----------|----4--6--7--9-----9----|
A|-|------------------------|--------------------------|------------------------|
E|-|------------------------|--------------------------|------------------------|

E|-|--------------------------|---------------------------|-------------------12---|
B|-|--------------------------|-----------12-9-----9-h10--|-10-------10------------|
G|-|----------------------11--|--9-----9------------------|------------------------|
D|-|-------------------9------|---------------------------|------------------------|
A|-|--------------------------|---------------------------|------------------------|
E|-|--------------------------|---------------------------|------------------------|

E|-|----12-------12---------|----14----14/16----12---|-------------14-16----17--|
B|-|-------------------10---|-10---------------------|--------------------------|
G|-|------------------------|------------------------|--------------------------|
D|-|------------------------|------------------------|--------------------------|
A|-|------------------------|------------------------|--------------------------|
E|-|------------------------|------------------------|--------------------------|

E|-|-------------17\16-16---|-------14----14---------|-12----\7---------------|
B|-|------------------------|------------------------|-------------9-----p7---|
G|-|------------------------|------------------------|------------------------|
D|-|------------------------|------------------------|------------------------|
A|-|------------------------|------------------------|------------------------|
E|-|------------------------|------------------------|------------------------|

E|-|------------------------|-|
B|-|------------------------|-|
G|-|--9-----p6--------------|-|
D|-|--------------9-----p7--|-|
A|-|------------------------|-|
E|-|------------------------|-|


=-=-=-=-=-=-=-=-=-=-=-=-=-=-=-=-=-=
10 – Christmas Song
=-=-=-=-=-=-=-=-=-=-=-=-=-=-=-=-=-=

Intro & Verses:

E|-|-----------------------|-|
B|-|-----------------------|-|
G|-|--7---7----------------|-|
D|-|--4/5-4-0--7---7----5--|-|
A|-|-----------4/5-4-0--2--|-|
e|-|-----------------------|-| X4

...boyfriend...
Part:

E|-|--------|-|
B|-|--------|-|
G|-|--7--5--|-|
D|-|--4--2--|-|
A|-|--5--3--|-|
e|-|--------|-|

 
Chorus: (Love, love, love)
       G    A    Bm

Verse II:
 
 When Jesus...                    blood of my

G  Bm  G  A  Bm  G  A  Bm  G  A  Bm  [G A Bm]

Verse:

She was his girl; he was her boyfriend
She be his wife; take him as her husband
A surprise on the way, any day, any day
One healthy little giggling dribbling baby boy
The wise men came three made their way
To shower him with love
While he lay in the hay

Chorus:

Shower him with love, love, and love
Love, love, love
Love, love, is all around

Verse:

Not very much of his chilhood was known
kept his mother Mary worried
always out on his own
he met another Mary for a reasonable fee, less than
reputable as known to be

Chorus:

His heart was full of love, love, love
Love, love, love
Love, love is all around

Verse II:

When Jesus Christ was nailed to the his tree
said "oh, Daddy-o I can See how it all soon will be
I came to shed a little light on this darkening scene
instead I fear I spill the blood of my children all around

The blood of our children all around
The blood of our children all around
The blood of our children all around
So the story goes, so I'm told
The people he knew were
Less than golden hearted
Gamblers and robbers
Drinkers and jokers, all Soul searchers
Like you and me

Rumours insisted he soon would be
For his deviations
Taken into custody by the authorities
Less informed than he.
Drinkers and jokers. all Soul searchers
Searching for love, love, love
Love, love, love
Love, love is all around
preparations were made
for his celebration day
he said "eat this bread and think of it as me
drink this wine and dream it will be
the blood of our children all around
the blood of our children all around
the blood of our children all around

Father up above, why in all this anger have you fill
me up with love
fill me love, love, love
love, love, love
love, love
and the blood of our children all around

=-=-=-=-=-=-=-=-=-=-=-=-=-=-=-=-=-=
Chords:
=-=-=-=-=-=-=-=-=-=-=-=-=-=-=-=-=-=

=-=-=-=-=-=-=-=-=-=-=-=-=-=-=-=-=-=
1 – Ants Marching
=-=-=-=-=-=-=-=-=-=-=-=-=-=-=-=-=-=
 
      D     G     Bm    A
E|-|--2--|--3--|--2--|--0--|-|
B|-|--3--|--0--|--3--|--2--|-|
G|-|--2--|--0—-|--4--|--2--|-|
D|-|--0--|--0--|--4--|--2--|-|
A|-|--X--|--2--|--2--|--0--|-|
e|-|--X--|--3--|--X--|--X--|-|

=-=-=-=-=-=-=-=-=-=-=-=-=-=-=-=-=-=
2 – Tripping Billies
=-=-=-=-=-=-=-=-=-=-=-=-=-=-=-=-=-=

      A     D     G
E|-|--0--|--2--|--3--|-|
B|-|--2--|--3--|--0--|-|
D|-|--2--|--2--|--0--|-|
D|-|--2--|--0--|--0--|-|
A|-|--0--|--X--|--2--|-|
e|-|--X--|--X--|--3--|-|

=-=-=-=-=-=-=-=-=-=-=-=-=-=-=-=-=-=
3 – Recently
=-=-=-=-=-=-=-=-=-=-=-=-=-=-=-=-=-=

     Dm     C    Bm     A    Am     G
E|-|--1--|--0--|--2--|--0--|--0--|--3--|-|
B|-|--3--|--1--|--3--|--2--|--1--|--0--|-|
G|-|--2--|--0--|--4--|--2--|--2--|--0--|-|
D|-|--0--|--2--|--4--|--2--|--2--|--0--|-|
A|-|--X--|--3--|--2--|--0--|--0--|--2--|-|
e|-|--X--|--X--|--X--|--X--|--X--|--3--|-|

=-=-=-=-=-=-=-=-=-=-=-=-=-=-=-=-=-=
4 – Satellite
=-=-=-=-=-=-=-=-=-=-=-=-=-=-=-=-=-=

     Ab    Db    Bbm   Eb    Cm
E|-|--4--|--4--|--1--|--6--|--3--|-|
B|-|--4--|--4--|--2--|--8--|--4--|-|
G|-|--5--|--6--|--3--|--8--|--5--|-|
D|-|--6--|--6--|--3--|--8--|--5--|-|
A|-|--6--|--4--|--1--|--6--|--3--|-|
e|-|--4--|--X--|--X--|--X--|--X--|-|

=-=-=-=-=-=-=-=-=-=-=-=-=-=-=-=-=-=
5 – One Sweet World
=-=-=-=-=-=-=-=-=-=-=-=-=-=-=-=-=-=

     Cm    Bb    Ab    D#    Dm
E|-|--3--|--6--|--4--|--6--|--5--|-|
B|-|--4--|--6--|--4--|--8--|--6--|-|
G|-|--5--|--7--|--5--|--8--|--7--|-|
D|-|--5--|--8--|--6--|--8--|--7--|-|
A|-|--3--|--8--|--6--|--6--|--5--|-|
e|-|--X--|--6--|--4--|--X--|--X--|-|

=-=-=-=-=-=-=-=-=-=-=-=-=-=-=-=-=-=
6 – The Song That Jane Likes
=-=-=-=-=-=-=-=-=-=-=-=-=-=-=-=-=-=

      D     C     F     G    Am     E
E|-|--2--|--0--|--1--|--3--|--0--|--0--|-|
B|-|--3--|--1--|--1--|--0--|--1--|--0--|-|
G|-|--2--|--0--|--2--|--0--|--2--|--1--|-|
D|-|--0--|--2--|--3--|--0--|--2--|--2--|-|
A|-|--X--|--3--|--3--|--2--|--0--|--2--|-|
e|-|--X--|--X--|--1--|--3--|--X--|--0--|-|

=-=-=-=-=-=-=-=-=-=-=-=-=-=-=-=-=-=
7 – Minarets
=-=-=-=-=-=-=-=-=-=-=-=-=-=-=-=-=-=

No Chords.

=-=-=-=-=-=-=-=-=-=-=-=-=-=-=-=-=-=
8 – Seek Up
=-=-=-=-=-=-=-=-=-=-=-=-=-=-=-=-=-=

     Dm     C     A    Bm     G    Bb     C
E|-|--1--|--0--|--0--|--2--|--3--|--6--|--8---|-|
B|-|--3--|--1--|--2--|--3--|--0--|--6--|--8---|-|
G|-|--2--|--0--|--2--|--4--|--0--|--7--|--9---|-|
D|-|--0--|--2--|--2--|--4--|--0--|--8--|--10--|-|
A|-|--X--|--3--|--0--|--2--|--2--|--8--|--10--|-|
e|-|--X--|--X--|--X--|--X--|--3--|--6--|--8---|-|

=-=-=-=-=-=-=-=-=-=-=-=-=-=-=-=-=-=
9 – I’ll Back You Up
=-=-=-=-=-=-=-=-=-=-=-=-=-=-=-=-=-=

      A    E/G#  F#m    E     G
E|-|--0--|--0--|--2--|--0--|--X--|-|
B|-|--2--|--5--|--2--|--0--|--X--|-|
G|-|--2--|--4--|--2--|--1--|--X--|-|
D|-|--2--|--2--|--4--|--2--|--5--|-|
A|-|--0--|--0--|--4--|--2--|--2--|-|
e|-|--X--|--4--|--2--|--0--|--3--|-|

=-=-=-=-=-=-=-=-=-=-=-=-=-=-=-=-=-=
10 – Christmas Song
=-=-=-=-=-=-=-=-=-=-=-=-=-=-=-=-=-=

      G     A    Bm
E|-|--3--|--0--|--2--|-|
B|-|--0--|--2--|--3--|-|
G|-|--0--|--2--|--4--|-|
D|-|--0--|--2--|--4--|-|
A|-|--2--|--0--|--2--|-|
e|-|--3--|--X--|--X--|-|

*Except solo tabbed by Ryan Patterson |rpatters@cco.caltech.edu|
comments
We did not receive enough feedback on this tab! Please rate:
print report bad tab
1 2 3 4 5
1 comment total.
0 reply
WCS_Is_Worse1 wrote on December 3 2006, 08:28 am

MOST EXCELLENT!

I want to post or [tab]
guest
You may want to rate the tab now too:
select rating
Please do not post tabs as comments. Select "correction" instead!