Oops, an error
Loading. Please wait.

Rebel Rebel Tab

ver6
ver6
More versions @911Tabs.com
1,067 views 24 this week
no commentswrite comment
1 2 3 4 5
excellent!
x 1
Autoscroll
+/-
esc
set tempo
stop
Contributor
Difficulty
intermediate
Hey! There's an official Ultimate Guitar app which is ideal
for learning songs when you're away from computer. Get the app
WARNING: You are trying to view
                                    content from Ultimate-Guitar.com
                                    in an unauthorized application,
                                    which is prohibited.

                                    Please use an official Ultimate
                                    Guitar Tabs application for iPhone,
                                    iPad or Android to access legitimate
                                    chords, guitar, bass, and drum tabs
                                    from Ultimate-Guitar.com database.

                                    Type "ultimate guitar tabs" in Apple
                                    App Store's or Android Market's
                                    search to find the application.
REBEL REBEL
As recorded by David Bowie
(From the 1974 Album DIAMOND DOGS)

Words and Music by David Bowie

Transcribed by Slowhand

Gtr I (E A D G B E) - 'Guitar 1'
Gtr II (E A D G B E) - 'Guitar 2'

   Intro
    Q=130
    N.C.
   4/4
    Gtr I
    Q  Q  Q  E E   E E E E E E E E   Q  Q  Q  E E   E E E E E E E E
||-----0---------|-----------------|----0---------|-------------------||
||o-------3--2-0-|---0-----2p0-----|-------3--2-0-|---0-----2p0------o||
||-------------1-|---1---------1---|------------1-|---1---------1-----||
||--0------------|---------------2-|-0------------|---------------2---||
||o--------------|-----------------|--------------|------------------o||
||---------------|-------0---------|--------------|-------0-----------||


  D          E                       D          E
  Q  Q  Q  E E    E  E E E E E E E   Q  Q  Q  E E    E  E E E E E E E
|----0---------|-------------------|----0---------|--------------------|
|-------3--2-0-|-----0-----2p0-----|-------3--2-0-|-----0-----2p0------|
|------------1-|-----1---------1---|------------1-|-----1---------1----|
|-0------------|-----------------2-|-0------------|-----------------2--|
|--------------|-------------------|--------------|--------------------|
|--------------|---------0---------|--------------|---------0----------|
|
| Gtr II
| Q  Q  Q  E E   +E  Q   E Q   Q     Q  Q  Q  E E   +E  Q   E Q   Q
|-2--2--2--2-0-|-(0)-0---0-0---0---|-2--2--2--2-0-|-(0)-0---0-0---0----|
|-3--3--3--3-0-|-(0)-0---0-0---0---|-3--3--3--3-0-|-(0)-0---0-0---0----|
|-2--2--2--2-1-|-(1)-1---1-1---1---|-2--2--2--2-1-|-(1)-1---1-1---1----|
|-0--0--0--0-2-|-(2)-2---2-2---2---|-0--0--0--0-2-|-(2)-2---2-2---2----|
|------------2-|-(2)-2---2-2---2---|------------2-|-(2)-2---2-2---2----|
|------------0-|-(0)-0---0-0---0---|------------0-|-(0)-0---0-0---0----|


  D          E                       D          E
  Q  Q  Q  E E    E  E E E E E E E   Q  Q  Q  E E    E  E E E E E E E
|----0---------|-------------------|----0---------|--------------------||
|-------3--2-0-|-----0-----2p0-----|-------3--2-0-|-----0-----2p0------||
|------------1-|-----1---------1---|------------1-|-----1---------1----||
|-0------------|-----------------2-|-0------------|-----------------2--||
|--------------|-------------------|--------------|--------------------||
|--------------|---------0---------|--------------|---------0----------||
|
| Q  Q  Q  E E   +E  Q   E Q   Q     Q  Q  Q  E E   +E  Q   E Q   Q
|-2--2--2--2-0-|-(0)-0---0-0---0---|-2--2--2--2-0-|-(0)-0---0-0---0----||
|-3--3--3--3-0-|-(0)-0---0-0---0---|-3--3--3--3-0-|-(0)-0---0-0---0----||
|-2--2--2--2-1-|-(1)-1---1-1---1---|-2--2--2--2-1-|-(1)-1---1-1---1----||
|-0--0--0--0-2-|-(2)-2---2-2---2---|-0--0--0--0-2-|-(2)-2---2-2---2----||
|------------2-|-(2)-2---2-2---2---|------------2-|-(2)-2---2-2---2----||
|------------0-|-(0)-0---0-0---0---|------------0-|-(0)-0---0-0---0----||


 1st & 2nd Verses
  $
  D          E                       D          E
  Q  Q  Q  E E    E  E E E E E E E   Q  Q  Q  E E    E  E E E E E E E
|----0---------|-------------------|----0---------|--------------------|
|-------3--2-0-|-----0-----2p0-----|-------3--2-0-|-----0-----2p0------|
|------------1-|-----1---------1---|------------1-|-----1---------1----|
|-0------------|-----------------2-|-0------------|-----------------2--|
|--------------|-------------------|--------------|--------------------|
|--------------|---------0---------|--------------|---------0----------|
|
| Q  Q  Q  E E   +E  Q   E Q   Q     Q  Q  Q  E E   +E  Q   E Q   Q
|-2--2--2--2-0-|-(0)-0---0-0---0---|-2--2--2--2-0-|-(0)-0---0-0---0----|
|-3--3--3--3-0-|-(0)-0---0-0---0---|-3--3--3--3-0-|-(0)-0---0-0---0----|
|-2--2--2--2-1-|-(1)-1---1-1---1---|-2--2--2--2-1-|-(1)-1---1-1---1----|
|-0--0--0--0-2-|-(2)-2---2-2---2---|-0--0--0--0-2-|-(2)-2---2-2---2----|
|------------2-|-(2)-2---2-2---2---|------------2-|-(2)-2---2-2---2----|
|------------0-|-(0)-0---0-0---0---|------------0-|-(0)-0---0-0---0----|


  Q  Q  Q  E E    E  E E E E E E E   Q  Q  Q  E E    E  E E E E E E E
|----0---------|-------------------|----0---------|--------------------|
|-------3--2-0-|-----0-----2p0-----|-------3--2-0-|-----0-----2p0------|
|------------1-|-----1---------1---|------------1-|-----1---------1----|
|-0------------|-----------------2-|-0------------|-----------------2--|
|--------------|-------------------|--------------|--------------------|
|--------------|---------0---------|--------------|---------0----------|
|
| Q  Q  Q  E E   +E  Q   E Q   Q     Q  Q  Q  E E   +E  Q   E Q   Q
|-2--2--2--2-0-|-(0)-0---0-0---0---|-2--2--2--2-0-|-(0)-0---0-0---0----|
|-3--3--3--3-0-|-(0)-0---0-0---0---|-3--3--3--3-0-|-(0)-0---0-0---0----|
|-2--2--2--2-1-|-(1)-1---1-1---1---|-2--2--2--2-1-|-(1)-1---1-1---1----|
|-0--0--0--0-2-|-(2)-2---2-2---2---|-0--0--0--0-2-|-(2)-2---2-2---2----|
|------------2-|-(2)-2---2-2---2---|------------2-|-(2)-2---2-2---2----|
|------------0-|-(0)-0---0-0---0---|------------0-|-(0)-0---0-0---0----|


  Q  Q  Q  E E    E  E E E E E E E   Q  Q  Q  E E    E  E E E E E E E
|----0---------|-------------------|----0---------|--------------------|
|-------3--2-0-|-----0-----2p0-----|-------3--2-0-|-----0-----2p0------|
|------------1-|-----1---------1---|------------1-|-----1---------1----|
|-0------------|-----------------2-|-0------------|-----------------2--|
|--------------|-------------------|--------------|--------------------|
|--------------|---------0---------|--------------|---------0----------|
|
| Q  Q  Q  E E   +E  Q   E Q   Q     Q  Q  Q  E E   +E  Q   E Q   Q
|-2--2--2--2-0-|-(0)-0---0-0---0---|-2--2--2--2-0-|-(0)-0---0-0---0----|
|-3--3--3--3-0-|-(0)-0---0-0---0---|-3--3--3--3-0-|-(0)-0---0-0---0----|
|-2--2--2--2-1-|-(1)-1---1-1---1---|-2--2--2--2-1-|-(1)-1---1-1---1----|
|-0--0--0--0-2-|-(2)-2---2-2---2---|-0--0--0--0-2-|-(2)-2---2-2---2----|
|------------2-|-(2)-2---2-2---2---|------------2-|-(2)-2---2-2---2----|
|------------0-|-(0)-0---0-0---0---|------------0-|-(0)-0---0-0---0----|


                                                               To Coda
  Q  Q  Q  E E    E  E E E E E E E   Q  Q  Q  E E    E  E E E E E E E
|----0---------|-------------------|----0---------|--------------------||
|-------3--2-0-|-----0-----2p0-----|-------3--2-0-|-----0-----2p0------||
|------------1-|-----1---------1---|------------1-|-----1---------1----||
|-0------------|-----------------2-|-0------------|-----------------2--||
|--------------|-------------------|--------------|--------------------||
|--------------|---------0---------|--------------|---------0----------||
|
| Q  Q  Q  E E   +E  Q   E Q   Q     Q  Q  Q  E E   +E  Q   E Q   Q
|-2--2--2--2-0-|-(0)-0---0-0---0---|-2--2--2--2-0-|-(0)-0---0-0---0----||
|-3--3--3--3-0-|-(0)-0---0-0---0---|-3--3--3--3-0-|-(0)-0---0-0---0----||
|-2--2--2--2-1-|-(1)-1---1-1---1---|-2--2--2--2-1-|-(1)-1---1-1---1----||
|-0--0--0--0-2-|-(2)-2---2-2---2---|-0--0--0--0-2-|-(2)-2---2-2---2----||
|------------2-|-(2)-2---2-2---2---|------------2-|-(2)-2---2-2---2----||
|------------0-|-(0)-0---0-0---0---|------------0-|-(0)-0---0-0---0----||


 Pre-Chorus
  A             D                 Bm                E
  W             Q.    E +H        H     +E  E Q     E E E E E E E E
|-------------|-2-----2-(2)-----|-2-----(2)-------|-0-0-0-0-0-0-0-0--||
|-2-----------|-3-----3-(3)-----|-3-----(3)-------|-0-0-0-0-0-0-0-0--||
|-2-----------|-2-----2-(2)-----|-4-----(4)-------|-1-1-1-1-1-1-1-1--||
|-2-----------|-0-----0-(0)-----|-4-----(4)-------|-2-2-2-2-2-2-2-2--||
|-0-----------|-----------------|-2-----(2)-2-----|-2-2-2-2-2-2-2-2--||
|-------------|-----------------|-------------4\--|-0-0-0-0-0-0-0-0--||
|
| Q  Q  Q  Q    Q   Q    Q   Q    Q  Q   Q    Q     Q   Q   Q   Q
|-0--0--0--0--|-2---2----2---2--|-2--2---2----2---|-0---0---0---0----||
|-2--2--2--2--|-3---3----3---3--|-3--3---3----3---|-0---0---0---0----||
|-2--2--2--2--|-2---2----2---2--|-4--4---4----4---|-1---1---1---1----||
|-2--2--2--2--|-0---0----0---0--|-4--4---4----4---|-2---2---2---2----||
|-0--0--0--0--|-----------------|-2--2---2----2---|-2---2---2---2----||
|-------------|-----------------|-----------------|-0---0---0---0----||


 Chorus
  $$
  D          E                       D          E
  Q  Q  Q  E E    E  E E E E E E E   Q  Q  Q  E E    E  E E E E E E E
|----0---------|-------------------|----0---------|--------------------|
|-------3--2-0-|-----0-----2p0-----|-------3--2-0-|-----0-----2p0------|
|------------1-|-----1---------1---|------------1-|-----1---------1----|
|-0------------|-----------------2-|-0------------|-----------------2--|
|--------------|-------------------|--------------|--------------------|
|--------------|---------0---------|--------------|---------0----------|
|
| Q  Q  Q  E E   +E  Q   E Q   Q     Q  Q  Q  E E   +E  Q   E Q   Q
|-2--2--2--2-0-|-(0)-0---0-0---0---|-2--2--2--2-0-|-(0)-0---0-0---0----|
|-3--3--3--3-0-|-(0)-0---0-0---0---|-3--3--3--3-0-|-(0)-0---0-0---0----|
|-2--2--2--2-1-|-(1)-1---1-1---1---|-2--2--2--2-1-|-(1)-1---1-1---1----|
|-0--0--0--0-2-|-(2)-2---2-2---2---|-0--0--0--0-2-|-(2)-2---2-2---2----|
|------------2-|-(2)-2---2-2---2---|------------2-|-(2)-2---2-2---2----|
|------------0-|-(0)-0---0-0---0---|------------0-|-(0)-0---0-0---0----|


                           To Dbl. Coda
  D          E                       D
  Q  Q  Q  E E    E  E E E E E E E   W          H    +E  Q.
|----0---------|-------------------|-2--------|-0----(0)-------||
|-------3--2-0-|-----0-----2p0-----|-3--------|-0----(0)-------||
|------------1-|-----1---------1---|-2--------|-1----(1)-------||
|-0------------|-----------------2-|-0--------|-2----(2)-------||
|--------------|-------------------|----------|-2----(2)-------||
|--------------|---------0---------|----------|-0----(0)-3-----||
|
| Q  Q  Q  E E   +E  Q   E Q   Q     W          W
|-2--2--2--2-0-|-(0)-0---0-0---0---|-2--------|-0--------------||
|-3--3--3--3-0-|-(0)-0---0-0---0---|-3--------|-0--------------||
|-2--2--2--2-1-|-(1)-1---1-1---1---|-2--------|-1--------------||
|-0--0--0--0-2-|-(2)-2---2-2---2---|-0--------|-2--------------||
|------------2-|-(2)-2---2-2---2---|----------|-2--------------||
|------------0-|-(0)-0---0-0---0---|----------|-0--------------||


 Interlude
  D          E                       D          E
  Q  Q  Q  E E    E  E E E E E E E   Q  Q  Q  E E    E  E E E E E E E
|----0---------|-------------------|----0---------|--------------------|
|-------3--2-0-|-----0-----2p0-----|-------3--2-0-|-----0-----2p0------|
|------------1-|-----1---------1---|------------1-|-----1---------1----|
|-0------------|-----------------2-|-0------------|-----------------2--|
|--------------|-------------------|--------------|--------------------|
|--------------|---------0---------|--------------|---------0----------|
|
| Q  Q  Q  E E   +E  Q   E Q   Q     Q  Q  Q  E E   +E  Q   E Q   Q
|-2--2--2--2-0-|-(0)-0---0-0---0---|-2--2--2--2-0-|-(0)-0---0-0---0----|
|-3--3--3--3-0-|-(0)-0---0-0---0---|-3--3--3--3-0-|-(0)-0---0-0---0----|
|-2--2--2--2-1-|-(1)-1---1-1---1---|-2--2--2--2-1-|-(1)-1---1-1---1----|
|-0--0--0--0-2-|-(2)-2---2-2---2---|-0--0--0--0-2-|-(2)-2---2-2---2----|
|------------2-|-(2)-2---2-2---2---|------------2-|-(2)-2---2-2---2----|
|------------0-|-(0)-0---0-0---0---|------------0-|-(0)-0---0-0---0----|


                                                          D.S. al Coda
  Q  Q  Q  E E    E  E E E E E E E   Q  Q  Q  E E    E  E E E E E E E
|----0---------|-------------------|----0---------|--------------------||
|-------3--2-0-|-----0-----2p0-----|-------3--2-0-|-----0-----2p0------||
|------------1-|-----1---------1---|------------1-|-----1---------1----||
|-0------------|-----------------2-|-0------------|-----------------2--||
|--------------|-------------------|--------------|--------------------||
|--------------|---------0---------|--------------|---------0----------||
|
| Q  Q  Q  E E   +E  Q   E Q   Q     Q  Q  Q  E E   +E  Q   E Q   Q
|-2--2--2--2-0-|-(0)-0---0-0---0---|-2--2--2--2-0-|-(0)-0---0-0---0----||
|-3--3--3--3-0-|-(0)-0---0-0---0---|-3--3--3--3-0-|-(0)-0---0-0---0----||
|-2--2--2--2-1-|-(1)-1---1-1---1---|-2--2--2--2-1-|-(1)-1---1-1---1----||
|-0--0--0--0-2-|-(2)-2---2-2---2---|-0--0--0--0-2-|-(2)-2---2-2---2----||
|------------2-|-(2)-2---2-2---2---|------------2-|-(2)-2---2-2---2----||
|------------0-|-(0)-0---0-0---0---|------------0-|-(0)-0---0-0---0----||


 Pre-Chorus
  &
  A             D                   Bm                  E
  W             H     +E  Q   +E    H     +E  Q   +E    E E E E E E E E
|-------------|-2-----(2)-2---(2)-|-2-----(2)-2---(2)-|-0-0-0-0-0-0-0-0--||
|-2-----------|-3-----(3)-3---(3)-|-3-----(3)-3---(3)-|-0-0-0-0-0-0-0-0--||
|-2-----------|-2-----(2)-2---(2)-|-4-----(4)-4---(4)-|-1-1-1-1-1-1-1-1--||
|-2-----------|-0-----(0)-0---(0)-|-4-----(4)-4---(4)-|-2-2-2-2-2-2-2-2--||
|-0-----------|-------------------|-2-----(2)-2---(2)-|-2-2-2-2-2-2-2-2--||
|-------------|-------------------|-------------------|-0-0-0-0-0-0-0-0--||
|
| Q  Q  Q  Q    Q  Q   Q    Q       Q  Q   Q    Q       Q   Q   Q   Q
|-0--0--0--0--|-2--2---2----2-----|-2--2---2----2-----|-0---0---0---0----||
|-2--2--2--2--|-3--3---3----3-----|-3--3---3----3-----|-0---0---0---0----||
|-2--2--2--2--|-2--2---2----2-----|-4--4---4----4-----|-1---1---1---1----||
|-2--2--2--2--|-0--0---0----0-----|-4--4---4----4-----|-2---2---2---2----||
|-0--0--0--0--|-------------------|-2--2---2----2-----|-2---2---2---2----||
|-------------|-------------------|-------------------|-0---0---0---0----||


 Chorus
  D          E                       D          E
  Q  Q  Q  E E    E  E E E E E E E   Q  Q  Q  E E    E  E E E E E E E
|----0---------|-------------------|----0---------|--------------------|
|-------3--2-0-|-----0-----2p0-----|-------3--2-0-|-----0-----2p0------|
|------------1-|-----1---------1---|------------1-|-----1---------1----|
|-0------------|-----------------2-|-0------------|-----------------2--|
|--------------|-------------------|--------------|--------------------|
|--------------|---------0---------|--------------|---------0----------|
|
| Q  Q  Q  E E   +E  Q   E Q   Q     Q  Q  Q  E E   +E  Q   E Q   Q
|-2--2--2--2-0-|-(0)-0---0-0---0---|-2--2--2--2-0-|-(0)-0---0-0---0----|
|-3--3--3--3-0-|-(0)-0---0-0---0---|-3--3--3--3-0-|-(0)-0---0-0---0----|
|-2--2--2--2-1-|-(1)-1---1-1---1---|-2--2--2--2-1-|-(1)-1---1-1---1----|
|-0--0--0--0-2-|-(2)-2---2-2---2---|-0--0--0--0-2-|-(2)-2---2-2---2----|
|------------2-|-(2)-2---2-2---2---|------------2-|-(2)-2---2-2---2----|
|------------0-|-(0)-0---0-0---0---|------------0-|-(0)-0---0-0---0----|


  D          E                       D          E
  Q  Q  Q  E E    E  E E E E E E E   W          H    +E  Q.
|----0---------|-------------------|-2--------|-0----(0)----------||
|-------3--2-0-|-----0-----2p0-----|-3--------|-0----(0)----------||
|------------1-|-----1---------1---|-2--------|-1----(1)----------||
|-0------------|-----------------2-|-0--------|-2----(2)----------||
|--------------|-------------------|----------|-2----(2)----------||
|--------------|---------0---------|----------|-0----(0)-3b3.5----||
|
| Q  Q  Q  E E   +E  Q   E Q   Q     W          W
|-2--2--2--2-0-|-(0)-0---0-0---0---|-2--------|-0-----------------||
|-3--3--3--3-0-|-(0)-0---0-0---0---|-3--------|-0-----------------||
|-2--2--2--2-1-|-(1)-1---1-1---1---|-2--------|-1-----------------||
|-0--0--0--0-2-|-(2)-2---2-2---2---|-0--------|-2-----------------||
|------------2-|-(2)-2---2-2---2---|----------|-2-----------------||
|------------0-|-(0)-0---0-0---0---|----------|-0-----------------||


 Interlude
  D          E                       D          E
  Q  Q  Q  E E    E  E E E E E E E   Q  Q  Q  E E    E  E E E E E E E
|----0---------|-------------------|----0---------|--------------------|
|-------3--2-0-|-----0-----2p0-----|-------3--2-0-|-----0-----2p0------|
|------------1-|-----1---------1---|------------1-|-----1---------1----|
|-0------------|-----------------2-|-0------------|-----------------2--|
|--------------|-------------------|--------------|--------------------|
|--------------|---------0---------|--------------|---------0----------|
|
| Q  Q  Q  E E   +E  Q   E Q   Q     Q  Q  Q  E E   +E  Q   E Q   Q
|-2--2--2--2-0-|-(0)-0---0-0---0---|-2--2--2--2-0-|-(0)-0---0-0---0----|
|-3--3--3--3-0-|-(0)-0---0-0---0---|-3--3--3--3-0-|-(0)-0---0-0---0----|
|-2--2--2--2-1-|-(1)-1---1-1---1---|-2--2--2--2-1-|-(1)-1---1-1---1----|
|-0--0--0--0-2-|-(2)-2---2-2---2---|-0--0--0--0-2-|-(2)-2---2-2---2----|
|------------2-|-(2)-2---2-2---2---|------------2-|-(2)-2---2-2---2----|
|------------0-|-(0)-0---0-0---0---|------------0-|-(0)-0---0-0---0----|


                                                   D.S.S. al Dbl. Coda
  D          E                       D          E
  Q  Q  Q  E E    E  E E E E E E E   Q  Q  Q  E E    E  E E E E E E E
|----0---------|-------------------|----0---------|--------------------||
|-------3--2-0-|-----0-----2p0-----|-------3--2-0-|-----0-----2p0------||
|------------1-|-----1---------1---|------------1-|-----1---------1----||
|-0------------|-----------------2-|-0------------|-----------------2--||
|--------------|-------------------|--------------|--------------------||
|--------------|---------0---------|--------------|---------0----------||
|
| Q  Q  Q  E E   +E  Q   E Q   Q     Q  Q  Q  E E   +E  Q   E Q   Q
|-2--2--2--2-0-|-(0)-0---0-0---0---|-2--2--2--2-0-|-(0)-0---0-0---0----||
|-3--3--3--3-0-|-(0)-0---0-0---0---|-3--3--3--3-0-|-(0)-0---0-0---0----||
|-2--2--2--2-1-|-(1)-1---1-1---1---|-2--2--2--2-1-|-(1)-1---1-1---1----||
|-0--0--0--0-2-|-(2)-2---2-2---2---|-0--0--0--0-2-|-(2)-2---2-2---2----||
|------------2-|-(2)-2---2-2---2---|------------2-|-(2)-2---2-2---2----||
|------------0-|-(0)-0---0-0---0---|------------0-|-(0)-0---0-0---0----||


                     Interlude
  &&
  E                   D          E
  H    +E  Q.         Q  Q  Q  E E    E  E E E E E E E
|-0----(0)---------||----0---------|-------------------|
|-0----(0)---------||-------3--2-0-|-----0-----2p0-----|
|-1----(1)---------||------------1-|-----1---------1---|
|-2----(2)---------||-0------------|-----------------2-|
|-2----(2)---------||--------------|-------------------|
|-0----(0)-3b3.5---||--------------|---------0---------|
|
| W                   Q  Q  Q  E E   +E  Q   E Q   Q
|-0----------------||-2--2--2--2-0-|-(0)-0---0-0---0---|
|-0----------------||-3--3--3--3-0-|-(0)-0---0-0---0---|
|-1----------------||-2--2--2--2-1-|-(1)-1---1-1---1---|
|-2----------------||-0--0--0--0-2-|-(2)-2---2-2---2---|
|-2----------------||------------2-|-(2)-2---2-2---2---|
|-0----------------||------------0-|-(0)-0---0-0---0---|


  D          E
  Q  Q  Q  E E    E  E E E E E E E
|----0---------|---------------------||
|-------3--2-0-|-----0-----2p0-------||
|------------1-|-----1---------1-----||
|-0------------|-----------------2---||
|--------------|---------------------||
|--------------|---------0-----------||
|
| Q  Q  Q  E E   +E  Q   E Q   Q
|-2--2--2--2-0-|-(0)-0---0-0---0-----||
|-3--3--3--3-0-|-(0)-0---0-0---0-----||
|-2--2--2--2-1-|-(1)-1---1-1---1-----||
|-0--0--0--0-2-|-(2)-2---2-2---2-----||
|------------2-|-(2)-2---2-2---2-----||
|------------0-|-(0)-0---0-0---0-----||


   Outro
    D          E                       D          E
    Q  Q  Q  E E    E  E E E E E E E   Q  Q  Q  E E    E  E E E E E E E  9x
||-----0---------|-------------------|----0---------|--------------------||
||o-------3--2-0-|-----0-----2p0-----|-------3--2-0-|-----0-----2p0-----o||
||-------------1-|-----1---------1---|------------1-|-----1---------1----||
||--0------------|-----------------2-|-0------------|-----------------2--||
||o--------------|-------------------|--------------|-------------------o||
||---------------|---------0---------|--------------|---------0----------||
|
|   Q  Q  Q  E E   +E  Q   E Q   Q     Q  Q  Q  E E   +E  Q   E Q   Q    9x
||--2--2--2--2-0-|-(0)-0---0-0---0---|-2--2--2--2-0-|-(0)-0---0-0---0----||
||o-3--3--3--3-0-|-(0)-0---0-0---0---|-3--3--3--3-0-|-(0)-0---0-0---0---o||
||--2--2--2--2-1-|-(1)-1---1-1---1---|-2--2--2--2-1-|-(1)-1---1-1---1----||
||--0--0--0--0-2-|-(2)-2---2-2---2---|-0--0--0--0-2-|-(2)-2---2-2---2----||
||o------------2-|-(2)-2---2-2---2---|------------2-|-(2)-2---2-2---2---o||
||-------------0-|-(0)-0---0-0---0---|------------0-|-(0)-0---0-0---0----||


  D          E
  Q  Q  Q  E E    E  E E E E E E E   q  Q  H
|----0---------|-------------------|------------*|
|-------3--2-0-|-----0-----2p0-----|------------*|
|------------1-|-----1---------1---|------------*|
|-0------------|-----------------2-|-0----------*|
|--------------|-------------------|------------*|
|--------------|---------0---------|------------*|
|
| Q  Q  Q  E E   +E  Q   E Q   Q     q  Q  H
|-2--2--2--2-0-|-(0)-0---0-0---0---|-2----------*|
|-3--3--3--3-0-|-(0)-0---0-0---0---|-3----------*|
|-2--2--2--2-1-|-(1)-1---1-1---1---|-2----------*|
|-0--0--0--0-2-|-(2)-2---2-2---2---|-0----------*|
|------------2-|-(2)-2---2-2---2---|------------*|
|------------0-|-(0)-0---0-0---0---|------------*|


Duration Legend
---------------
W - whole; H - half; Q - quarter; E - 8th; S - 16th; T - 32nd; X - 64th; a - acciaccatura
+ - note tied to previous; . - note dotted; .. - note double dotted
Uncapitalized letters represent notes that are staccato (1/2 duration)
Irregular groupings are notated above the duration line
Duration letters will always appear directly above the note/fret number it represents the
duration for.  Duration letters with no fret number below them represent rests.  Multi-
bar rests are notated in the form Wxn, where n is the number of bars to rest for.  Low
melody durations appear below the staff

Tablature Legend
----------------
 h   - hammer-on
 p   - pull-off
 b   - bend
 pb  - pre-bend
 r   - bend release (if no number after the r, then release immediately)
 /\  - slide into or out of (from/to "nowhere")
 s   - legato slide
 S   - shift slide
<n>  - natural harmonic
[n]  - artificial harmonic
n(n) - tapped harmonic
 ~   - vibrato
 tr  - trill
 T   - tap
 TP  - trem. picking
 PM  - palm muting
\n/  - tremolo bar dip; n = amount to dip
 \n  - tremolo bar down
 n/  - tremolo bar up
/n\  - tremolo bar inverted dip
 =   - hold bend; also acts as connecting device for hammers/pulls
 <>  - volume swell (louder/softer)
 x   - on rhythm slash represents muted slash
 o   - on rhythm slash represents single note slash

Misc Legend
-----------
 |  - bar
||  - double bar
||o - repeat start
o|| - repeat end
*|  - double bar (ending)
 :  - bar (freetime)
 $  - Segno
 &  - Coda
Tempo markers - <E/E./Q/Q./H/H.> = BPM(8/16=s8/s16), where s8 = swing 8ths, s16 = swing 16ths
comments
We did not receive enough feedback on this tab! Please rate:
print report bad tab
1 2 3 4 5
I want to post or [tab]
guest
You may want to rate the tab now too:
select rating
Please do not post tabs as comments. Select "correction" instead!