Oops, an error
Loading. Please wait.

All Creatures No 2 Bass Tab

ver1
ver1

Whole song

Interactive

More versions @911Tabs.com
246 views 1 this week
no commentswrite comment
1 2 3 4 5
please rate
Autoscroll
+/-
esc
set tempo
stop
Contributor
Difficulty
intermediate
Hey! There's an official Ultimate Guitar app which is ideal
for learning songs when you're away from computer. Get the app
WARNING: You are trying to view
                                    content from Ultimate-Guitar.com
                                    in an unauthorized application,
                                    which is prohibited.

                                    Please use an official Ultimate
                                    Guitar Tabs application for iPhone,
                                    iPad or Android to access legitimate
                                    chords, guitar, bass, and drum tabs
                                    from Ultimate-Guitar.com database.

                                    Type "ultimate guitar tabs" in Apple
                                    App Store's or Android Market's
                                    search to find the application.
Tempo = 70
Electric Bass

Legend
L - tied note
x - dead note
h - hammer on/pull off
s - slide
= - tremolo picking

Note:  This is NOT the recorded bass line for the song "All Creatures Pt. 2" by David
Crowder Band. This is something I wrote when my church would cover it. I played the bass
line improvisationally first and then developed it and actually wrote it later. There's
all sorts of different fills I use throughout the song, most of them I improvised so you do
not have to play it exactly. You get the general idea with the tab. I think it is
melodic yet very rhythmic and fits perfectly with the song and drum line. It is a beautiful
bass line and I hope you enjoy it. For a more accurate depiction of the bass line, I 
have also uploaded it to Ultimate Guitar via Guitar Pro 6. DO NOT play with a pick!


G |----|----|----|----|----------------------------------------------------|
D |----|----|----|----|----------------------------------------------------|
A |----|----|----|----|--5.----5-----------5h-7--5.----5-----------5h-7----|
E |----|----|----|----|----------------------------------------------------|


----------------------------------------------------|
----------------------------------------------------|
--5.----5-----------5h-7--5-----------4-------------|
----------------------------------------------------|


----------------------------------------------------|
----------------------------------------------------|
--2.----2-----------2h-5--2.----2-----------2h-5----|
----------------------------------------------------|


----------------------------------------------------|
----------------------------------------------------|
--2.----2-----------2h-5--2-----------0-------------|
----------------------------------------------------|


----------------------------------------------------|
--------------------------5.----5-------------------|
-----------------------5--------------5-------------|
--3.----3-----------3-----------------------3-------|


--------------------------7-----7-------------------|
-----------------------7--------------7s------------|
--------------------5-------------------------------|
--2.----2-------------------------------------------|


----------------------------------------------------|
----------------------------------------------------|
--5.----5-----------5h-7--5.----5-----------5h-7----|
----------------------------------------------------|


----------------------------------------------------|
----------------------------------------------------|
--5.----5-----------5h-7--5-----------4-------------|
----------------------------------------------------|


----------------------------------------------------|
----------------------------------------------------|
--2.----2-----------2h-5--2.----2-----------2h-5----|
----------------------------------------------------|


----------------------------------------------------|
----------------------------------------------------|
--2.----2-----------2h-5--2--------2--0--------0----|
----------------------------------------------------|


-----------------------------------------------------x-12h---9-------------------|
----------------------------------------------------x---------------12s---10-----|
---------------------------------------------------------------------------------|
--3.----------3------------------------------------------------------------------|


--------------------------|
9-------------------------|
------12----10------------|
--------------------------|


-----------------------------------------------------x-7-----4-------------------|
----------------------------------------------------x----------------------7-----|
--9.----------9------------------------------------------------------------------|
---------------------------------------------------------------------------------|


--------------------------|----------------------------------------------------|
7-------------------------|----------------------------------------------------|
------7-----5-----4-------|--5.----5-----------5h-7--5.----5-----------5h-7----|
--------------------------|-----------------5-----------------------5----------|


----------------------------------------------------|
----------------------------------------------------|
--5.----5-----------5h-7--5-----5-----4--------4----|
-----------------5----------------------------------|


----------------------------------------------------|
----------------------------------------------------|
--2.----2-----------2h-5--2.----2-----------2h-5----|
-----------------2-----------------------2----------|


----------------------------------------------------|
--------------------------4-----2-------------------|
--2.----2-----------2h-5--------------5-----2--0----|
-----------------2----------------------------------|


----------------------------------------------------|
--------------------------5.----5-------------------|
-----------------------5--------------5-------------|
--3.----3-----------3-----------------------3--3----|


--------------------------7.----7-------------------|
-----------------------4--------------7-------------|
--------------------5-----------------------5-------|
--2.----2-------------------------------------------|


----------------------------|
----------------------------|
-----------------2--5-------|
--3.-3--------3--------3----|


-----------------------------------7--7--7----------|----------------|
-----------------------------4--7-----------7-------|----------------|
--------------------------5--------------------7----|----------------|
--2.----2-------------------------------------------|--5--5--5--5----|


----------------------------------------------------|
----------------------------------------------------|
----------------------------------------------------|
--10.---10-------10-10-12-10.---10------------------|


--------------------------14------------------------|
-----------------9--12s14---------------------------|
-----------9--12------------------------------------|
--9--10-12------------------------------------------|


----------------------------------------------------|
----------------------------------------------------|
--5.----5-----------5h-7--5.----5-----5-----5h-7----|
-----------------5-----------------------5----------|


----------------------------------------------------|
--------------------------5-------------------------|
--5.----5-----------5h-7--------7-----5-----4--4----|
-----------------5----------------------------------|


----------------------------------------------------|
----------------------------------------------------|
--2.----2-----------2h-5--2.----2-----------2h-5----|
-----------------2-----------------------2----------|


----------------------------------------------------|
--------------------------4--2----------------------|
--2.----2-----------2h-5--------5--2-----0--0-------|
-----------------2----------------------------------|


----------------------------------------------------|
--------------------------5--5--5-------------------|
-----------------------5--------------5-------------|
--3.----3-----------3-----------------------3-------|


-----------------------------------7----------------|
-----------------------------4--7-------------------|
--------------------------5-----------------5--7----|
--2.----2--------------------------------5----------|


----------------------------------------------------|
----------------------------------------------------|
--5.----5-----5-----5h-7--5.----5-----5-----5h-7----|
-----------------5-----------------------5----------|


--------------------------------7-------------------|
--------------------------5--7--------5--7----------|
--5.----5-----5-----5h-7--------------------5--4----|
-----------------5----------------------------------|


----------------------------------------------------|
----------------------------------------------------|
--2.----2-----2-----2h-5--2.----2-----2-----2h-5----|
-----------------2-----------------------2----------|


--------------------------------4-----4s-6--6s-7----|
--------------------------2--4----------------------|
--2.----2-----2-----2h-5----------------------------|
-----------------2----------------------------------|


--------------------------------------------7-------|
--------------------------5.----5-----5s-9-----9----|
-----------------------5----------------------------|
--3.----3-----------3-------------------------------|


----------------------------------------------------|
-----------------------4--7-----7-------------------|
--------------------5-----------------5-----5-------|
--2.----2--------------------------------------5----|


----------------------------------------------------|
-----------------------------5----------------------|
-----------------------2--5--------------5--2-------|
--3.----3-----------3--------------------------3----|


----------------------------------------------------|
-----------------------------4--7-------------------|
--------------------------5-----------5--5--5--5----|
--2.----2-------------------------------------------|


----------------------------|
----------------------------|
-----------------------4----|
--5-----5-----5-----5-------|


----------------------------------------------------|
----------------------------------------------------|
--5.----5-----5-----5h-7--5.----5-----------5h-7----|
-----------------5-----------------------5----------|


--------------------------------7--------14-14------|
--------------------------5--7----------------------|
--5.----5-----------5h-7----------------------------|
-----------------5----------------------------------|


----------------------------------------------------|
----------------------------------------------------|
--2.----2-----------2h-5--2.----2-----------2h-5----|
-----------------2-----------------------2----------|


--------------------------4-----2-------------------|
--------------------------------------4--2----------|
--2.----2-----------2h-5--------------------2--0----|
-----------------2----------------------------------|


----------------------------------------------------|
--------------------------5.----5-------------------|
-----------------------5--------------5-------------|
--3.----3-----------3-----------------------3-------|


--------------------------7--4----------------------|
--------------------------------7--4----------------|
--------------------------------------7-----5h-7----|
--2.----2--------------------------------5----------|


----------------------------------------------------|
----------------------------------------------------|
--5.----5-----------5h-7--5.----5-----------5h-7----|
-----------------5-----------------------5----------|


----------------------------------------------------|
--------------------------------7--5--4-------------|
--5.----5-----------5h-7--5--------------7--5--4----|
-----------------5----------------------------------|


--------------------------------4s-6--6s-7--7s------|
--------------------------2h-4----------------------|
--2.----2-----------2h-5----------------------------|
-----------------2----------------------------------|


----------------------------------------------------|
--------------------------5--5--5-------------------|
-----------------------5--------------5-------------|
--3--3--3-----------3-----------------------3--3----|


--------------------------19-14-12------------------|
-----------------------------------14-12------------|
--5--------------------------------------14-12s-----|
----------------------------------------------------|


----------------------------------------------------|
----------------------------------------------------|
--5.----5-----5-----5h-7--5.----5-----5-----5h-7----|
-----------------5-----------------------5----------|


----------------------------------------------------|
--------------------------5--7--5--4----------------|
--5.----5-----5-----5h-7--------------7--5--5--4----|
-----------------5----------------------------------|


----------------------------------------------------|
----------------------------------------------------|
--2.----2-----2-----2h-5--2.----2-----2-----2h-5----|
-----------------2-----------------------2----------|


----------------------------------------------------|
--------------------------4--2----------------------|
--2.----2-----2-----2h-5--------5--2----------------|
-----------------2--------------------2--0--0--2----|


----------------------------------------------------|
--------------------------5--5--5-------------------|
-----------------------5--------------5-------------|
--3.----3-----------3-----------------------3--3----|


--------------------------7--7--7-------------------|
-----------------------7--------------7-------------|
--------------------5-----------------------5--5----|
--2.----2-------------------------------------------|


----------------------------------------------------|
--------------------------5--5--5-------------------|
--------------------2--5--------------5-------------|
--3.----3-----------------------------------3-------|


--------------------------7--4----------------------|
--------------------------------7--4----------------|
--------------------------------------7-----5h-7----|
--2.----2L----------2--------------------5----------|


----------------------------|----------------|-----19-19-19---|
----------------------------|----------------|----------------|
--------------12s---12-12---|----------------|----------------|
--5-----5-------------------|--10------------|----------------|


--19----19-19-19-19-19-19---|
----------------------------|
----------------------------|
----------------------------|


--19----19----19----19----19----19----19----19s-----|
----------------------------------------------------|
-----------------17----17----17----17----17-17s-----|
----------------------------------------------------|


--------------------------------------------------------------------------------|
--------------------------------------------------------------------------------|
--5-----------5-----------5-----------5--5h-7-----5-----------5-----------5-----|
--------------------------------------------------------------------------------|


--------------------|
--------------------|
------5--5h-7-------|
--------------------|


--------------------------------------------------------------------------------|
--------------------------------------------------------------7-----5-----4-----|
--5-----------5-----------5-----------5--5h-7-----5-----------------------------|
--------------------------------------------------------------------------------|


--------------------|
--------------------|
7-----5-----4-------|
--------------------|


--------------------------------------------------------------------------------|
--------------------------------------------------------------------------------|
--2-----------2-----------2-----------2--2h-5-----2-----------2-----------2-----|
--------------------------------------------------------------------------------|


--------------------|
--------------------|
------2--2h-5-------|
--------------------|


--------------------------------------------------------------------------------|
--------------------------------------------------4-----2-----------------------|
--2-----------2-----------2-----------2--2h-5-----------------5-----2-----------|
--------------------------------------------------------------------------2-----|


--------------------|----------------------------------------------------|
--------------------|--------------------------5-----5-----5-------------|
--------------------|-----------------------5--------------------5--2----|
0-----0-----2-------|--3-----3-----3-----3-------------------------------|


--------------------------7--7--7--7--7--7----------|
-----------------------7--------------------7-------|
--------------------5--------------------------5----|
--2-----2-----2-------------------------------------|


----------------------------------------------------|
--------------------------5--5--5--5--5--5----------|
-----------------------5--------------------5-------|
--3-----3-----3-----3--------------------------3----|


--------------------------7--4----------------------|----------------|
-----------------------7--------7--4----------------|----------------|
--------------------5-----------------7--5--5-------|----------------|
--2-----2-----2--------------------------------3----|--5--5--5--5----|


----------------------------|----------------------------|
----------------------------|----------------------------|
----------------------------|----------------------------|
--3--3--3--3--3--3--3--3----|--5--5--5--5--5--5--5--5----|


----------------------------|
----------------------------|
--2--2--2--2--2--2--2--2h---|
----------------------------|


----------------------------------------------------|
----------------------------------------------------|
--4-----4-----4-----4-----4-----4-----4-----4--5----|
----------------------------------------------------|


----------------------------------------------------|
----------------------------------------------------|
----------------------------------------------------|
--3-----3-----3-----3-----3-----3-----3--3--3--3----|


----------------------------------------------------|
----------------------------------------------------|
----------------------------------------------------|
--5-----5-----5-----5-----5-----5-----5--5--5--5----|


----------------------------------------------------|
----------------------------------------------------|
----------------------------------------------------|
--7-----7-----7-----7-----7-----7-----7-----7--7----|


----------------------------------------------------|
----------------------------------------------------|
--------------------------------------------12-12---|
--9-----9-----9-----9-----9-----9-----9--12---------|


------------------------------------------------------|
------------------------------------------------------|
------------------------------------------------------|
15-15-15-15-15-15-15-15-15-15-15-15-15-15-15-15-------|


----------------------------------------------------|
----------------------------------------------------|
----------------------------------------------------|
--17-17-17-17-17-17-17-17-17-17-17-17-17-17-17-17---|


---------------------------------------------------------------------------------|
---------------------------------------------------------------------------------|
14-14-14-14-14-14-14-14-14-14-14-14-14-14-14-14-14-14-14-14-14-14-14-14-14-14----|
---------------------------------------------------------------------------------|


--------------------|
--------------------|
14-14-14-14-14-14---|
--------------------|


---------------------------------------------------------------------------------|
---------------------------------------------------------------------------------|
16-16-16-16-16-16-16-16-16-16-16-16-16-16-16-16-16-16-16-16-16-16-16-16-16-16----|
---------------------------------------------------------------------------------|


--------------------|----------|----|----|----|----||
--------------------|----------|----|----|----|----||
16-16-16----17------|----------|----|----|----|----||
--------------------|--15-15s--|----|----|----|----||
comments
We did not receive enough feedback on this tab! Please rate:
print report bad tab
1 2 3 4 5
I want to post or [tab]
guest
You may want to rate the tab now too:
select rating
Please do not post tabs as comments. Select "correction" instead!