Oops, an error
Loading. Please wait.

God Almighty None Compares Tab

ver2
ver2

Solo

More versions @911Tabs.com
1,218 views 3 this week
no commentswrite comment
1 2 3 4 5
excellent!
x 1
Autoscroll
+/-
esc
set tempo
stop
Contributor
Difficulty
Tuning
advanced
D# G# C# F# A# D#
Hey! There's an official Ultimate Guitar app which is ideal
for learning songs when you're away from computer. Get the app
WARNING: You are trying to view
                                    content from Ultimate-Guitar.com
                                    in an unauthorized application,
                                    which is prohibited.

                                    Please use an official Ultimate
                                    Guitar Tabs application for iPhone,
                                    iPad or Android to access legitimate
                                    chords, guitar, bass, and drum tabs
                                    from Ultimate-Guitar.com database.

                                    Type "ultimate guitar tabs" in Apple
                                    App Store's or Android Market's
                                    search to find the application.
-----------------------------------------------------------------------------
GOD ALMIGHTY NONE COMPARES – David Crowder Band
-----------------------------------------------------------------------------
Tabbed by: Silverbullet524
Email: iwlamb4@gmail.com

Tuning: EbAbDbGbBbeb (Half-Step Down)

Guitar 1 (4:51)
e|---------------------------------------------------------------------------|
B|-------------------------------------------------------------------2-------|
G|---------------------------------------------------4-2--0-2-4--2-4---------|
D|-----------------------2--7-5--4-2-4--2-0-2--------------------------------|
A|--2--0-2-4--2-4-5--4-5-----------------------5-4-5-------------------------|
E|---------------------------------------------------------------------------|

e|---------2-----------------------------------------------------------------|
B|--0-2-3----5--3-2-3--2-0-2-------------------------------------------------|
G|----------------------------4-2-4--2---------------------------------------|
D|---------------------------------------------------------------------------|
A|---------------------------------------------------------------------------|
E|---------------------------------------------------------------------------|

Guitar 2 (4:51)
e|---------------------------------------------------------------------------|
B|---------------------------------------------------------------------5-----|
G|-------------------------6--4--2-0-2----------------7--6--4-6-7--6-7-------|
D|----------------4---4-5---------------5-4-5--4-2-4-------------------------|
A|--5--4-5-7--5-7----7-------------------------------------------------------|
E|---------------------------------------------------------------------------|

e|---------5-----------------------------------------------------------------|
B|----5-7-----8--7-5-7--5---5------------------------------------------------|
G|--7-------------------------7---7-6-7--6-----------------------------------|
D|---------------------------------------------------------------------------|
A|---------------------------------------------------------------------------|
E|---------------------------------------------------------------------------|

Guitar 1 (5:14)
e|---------------------------------------------------------------------------|
B|---------------------------------------------------------------------------|
G|---------------------------------------------------------------------------|
D|--5-5--5-5-5-----5-5--5-5-5----5-5--5-5-5-----5-5--5-5-5-------------------|
A|--5-5--5-5-5-----5-5--5-5-5----5-5--5-5-5-----5-5--5-5-5-------------------|
E|--7-7--7-7-7-----7-7--7-7-7----7-7--7-7-7-----7-7--7-7-7-------------------|

Guitar 2 (5:14)
e|--7--5------------------19--17---------------------------------------------|
B|-------8-7-5-------------------20-19-17------------------------------------|
G|-------------7-6------------------------19-18-14-16------------------------|
D|-----------------7-9-------------------------------------------------------|
A|---------------------------------------------------------------------------|
E|---------------------------------------------------------------------------|

e|---------------------------------------------------------------------------|
B|--7------------------------------------------------------------------------|
G|-----9-7-6-------6-7----4--2-0---------------------------------------------|
D|-----------9-7-----------------4-2-0---------------------------------------|
A|---------------9---------------------4-0-2---------------------------------|
E|---------------------------------------------------------------------------|

Guitar 1 (5:27)
e|---------------------------------------------------------------------------|
B|---------------------------------------------------------------------------|
G|---------------------------------------------------------------------------|
D|---------------------------------------------------------------------------|
A|---------------------------------------------------------------------------|
E|--7-5-7-5-7-5-7-5-7-5-7-5-7-5-7-5-7-5-7-5-7-5-7----------------------------|

Guitar 2 (5:27)
e|---------------------------------------------------------------------------|
B|---------------------------------------------------------------------------|
G|---------------------------------------------------------------------------|
D|---------------------------------------------------------------------------|
A|--------------9-7-9-7-9-7-9-7-9-7-9-7-9-7-9-7-9-7-9-7-9--------------------|
E|---------------------------------------------------------------------------|

Guitar 3
e|---------------------------------------------------------------------------|
B|---------------------------------------------------------------------------|
G|---------------------------------------------------------------------------|
D|---------------------------------------9-7-9-7-9-7-9-7-9-7-9-7-------------|
A|---------------------------------------------------------------------------|
E|---------------------------------------------------------------------------|

Guitar 3 (5:32) Sweep
e|--19p17p15-----------------------------------------------------------------|
B|----------19p17p15---------------------------------------------------------|
G|------------------18p16p14-------------------------------------------------|
D|--------------------------17p16p14------------------------------14h16h17---|
A|----------------------------------17p16p14--------------14h16h17-----------|
E|------------------------------------------17p15p14h15h17-------------------|

e|------------------15h17h19-19p17p15--------------------------|
B|----------15h17h19-----------------19p17p15------------------|
G|--14h16h18---------------------------------18p16p14----------|   x2
D|---------------------------------------------------17p16p14--|
A|-------------------------------------------------------------|
E|-------------------------------------------------------------|

e|--15p14p12p----------------------------------------------------------------|
B|-----------15p14p12--------------------------------------------------------|
G|-------------------14p12p11------------------------------------------------|
D|---------------------------14p12p11------------------------------11h12h14--|
A|-----------------------------------14p12p10--------------10h12h14----------|
E|-------------------------------------------14p12p10h12h14------------------|

e|------------------12h14h15-15p14p12--------------------------|
B|----------12h14h15-----------------15p14p12------------------|
G|--11h12h14---------------------------------14p12p11----------|
D|---------------------------------------------------14p12p11--|
A|-------------------------------------------------------------|
E|-------------------------------------------------------------|

Guitar 4 (5:57)
e|---------------------------------------------------------------------------|
B|--17b19-17b19-17b19--17-15-17--15-17-15----15------------------------------|
G|----------------------------------------16----16-14----14------------------|
D|----------------------------------------------------16----14-12----12-14---|
A|----------------------------------------------------------------14---------|
E|---------------------------------------------------------------------------|

e|-----------------------------------17-19-19b21--17-19-17-------------------|
B|-----------------15-17-15----17-19-----------------------------------------|
G|-----14----14-16----------16---------------------------------9b11---9------|
D|--16----16-----------------------------------------------------------------|
A|---------------------------------------------------------------------------|
E|---------------------------------------------------------------------------|

e|---------------7-----------------------------------------------------------|
B|-----------------7-12--12-10----10----------------10-----------------------|
G|--9---7-9-9b11---------------11----9-7---7--9--11----11-9-7---7--7-9-9b11--|
D|----9----------------------------------9--------------------9---9----------|
A|---------------------------------------------------------------------------|
E|---------------------------------------------------------------------------|

e|---------------------------------------------------------------------------|
B|-----------------10-12-12b14---10-12-10—7h8p7---7--------------------------|
G|--9-7---7-9-9b11------------------------------9---9-7b9---7-6--------------|
D|------9-------------------------------------------------9-----7-5-4--------|
A|--------------------------------------------------------------------7------|
E|---------------------------------------------------------------------------|

e|---------------------|
B|---------------------|
G|---------------------|
D|--4-5-7-4------------|
A|----------7\---------|
E|---------------------|

Guitar 1 (6:21)
e|---------------------------------------------------------------------------|
B|---------------------------------------------------------------------------|
G|---------------------------------------------------------------------------|
D|---------------------------------------------------------------------------|
A|---------------------------------------------------------------------------|
E|--7-5-7-5-7-5-7-5-7-5-7-5-7-5-7-5-7-5-7-5-7-5-7-5-7-5-7-5-7-5--------------|

Guitar 2 (6:21)
e|---------------------------------------------------------------------------|
B|---------------------------------------------------------------------------|
G|---------------------------------------------------------------------------|
D|---------------------------------------------------------------------------|
A|------------------9-7-9-7-9-7-9-7-9-7-9-7-9-7-9-7-9-7----------------------|
E|---------------------------------------------------------------------------|

Guitar 3 (6:21)
e|---------------------------------------------------------------------------|
B|---------------------------------------------------------------------------|
G|---------------------------------------------------------------------------|
D|--------------------------------9-7-9-7-9-7-9-7-9-7-9-7--------------------|
A|---------------------------------------------------------------------------|
E|---------------------------------------------------------------------------|

Guitar 4 (6:21)
e|--------------------14---------17------------------------------------------|
B|---------------------------------------------------------------------------|
G|---------------------------------------------------------------------------|
D|---------------------------------------------------------------------------|
A|---------------------------------------------------------------------------|
E|---------------------------------------------------------------------------|

Guitar 1 (6:28)
e|--------------------------------|
B|--------------------------------|
G|--------------------------------|
D|--------------------------------|
A|--------------------------------|
E|--/7--/9--/10--/12--/19---------|

Guitar 2 (6:28)
e|--------------------------------|
B|--/7--/10--/12--/15--/19--------|
G|--------------------------------|
D|--------------------------------|
A|--------------------------------|
E|--------------------------------|

Guitar 3 (6:28)
e|--/7--/9--/10--/14--/19---------|
B|--------------------------------|
G|--------------------------------|
D|--------------------------------|
A|--------------------------------|
E|--------------------------------|

************************************

| /   slide up
| \   slide down
| h   hammer-on
| p   pull-off
| ~   vibrato
| +   harmonic
| x   Mute note
| b   Bend
| pb  Pre-bend
| br  Bend release
| pbr Pre-bend release
| brb Bend release bend

************************************
comments
We did not receive enough feedback on this tab! Please rate:
print report bad tab
1 2 3 4 5
I want to post or [tab]
guest
You may want to rate the tab now too:
select rating
Please do not post tabs as comments. Select "correction" instead!