Oops, an error
Loading. Please wait.

Sweet Victory Tab

ver1
ver1

Solo

Whole song

Interactive

More versions @911Tabs.com
19,652 views 81 this week
1 commentread comment
1 2 3 4 5
excellent!
x 5
add to favorites launch autoscroll
font size
0
reset
Autoscroll
+/-
esc
set tempo
stop
Contributor
WARNING: You are trying to view
                                    content from Ultimate-Guitar.com
                                    in an unauthorized application,
                                    which is prohibited.

                                    Please use an official Ultimate
                                    Guitar Tabs application for iPhone,
                                    iPad or Android to access legitimate
                                    chords, guitar, bass, and drum tabs
                                    from Ultimate-Guitar.com database.

                                    Type "ultimate guitar tabs" in Apple
                                    App Store's or Android Market's
                                    search to find the application.
Band: David Glen Eisley
Song: Sweet Victory
Album: American Games
Year: ???
Tabbed by DoteStudios
Email is undermywheels71@gmail.com

This song is famously featured in the Spongebob Squarepants episode "Band Geeks." The 
is unknowingly by the singer/songwriter David Glen Eisley. I tabbed all guitar parts, I'm 
if guitar 2 exists cus guitar 1 might actually be playing it. Anyways, enjoy!!!

Trumpet (Spongebob version, not in the actual track)
E-------------------------------13~~~--13--13--13---------13~~~--15~~~-|
B-13~~~--13--13--15~~~--15--15---------------------15~~~---------------|
G----------------------------------------------------------------------|
D----------------------------------------------------------------------|
A----------------------------------------------------------------------|
E----------------------------------------------------------------------|

Keyboard Intro
E------------------------------------------------------------12----|
B------6---5------------6---5-----------6--5--------------10-------|
G-7------------5---7------------5---7---------5---9-----9----------|
D------------------------------------------------------------------|
A------------------------------------------------------------------|
E------------------------------------------------------------------|

"The winner takes all
It's the thrill of one more kill.
The last one to fall
Will never sacrifice their will"

"Don't ever look back On the world closing in. The only attack"
Guitar 1
E-----1------------1-------1----------------1--------|
B--------1------------1----1-------------------1-----|
G-----------2--5--------2--2------------5---------2--|
D-3------------5-----------3------------5------------|
A-3------------3-----------3--------0---3------------|
E-1------------------------1---1h3-------------------|

"were their wings on the wind.	  		Oh the games will begin"
Guitar 1
E---------------------------------------------------------------------------|
B---------------------------------------------------------------------------|
G---------------------------------------------------------------------------|
D-----------3--.--.--3--.--.--3--.--.---------------/8--8--8--8--8------8---|
A-----------1--1--1--1--1--1--1--1--1--1--0---------/6--6--6--6--6---8--6---|
E--------------------------------------------3--1--------------------6------|

Chorus:
"And it's sweet,		 sweet, 		sweet victory! 	Yeah!"
Guitar 1
E--------------------------------------------------------------------------|
B--------------------------------------------------------------------------|
G--------------------------------------------------------------------------|
D-3------------------------------------------------------------------------|
A-3------------------------------------------------------------5--6--7--8--|
E-1------------1--3--5------------5--4--3------------3--5--6---------------|

Guitar 2
E------1------------------1------------------------------------------------|
B---------1------------------1--------------4------------------------------|
G------------2------------------2--------------3---------------------------|
D-------------------------------------------------5------------------------|
A--------------------------------------------------------------------------|
E--------------------------------------------------------------------------|

"And it's ours for the taking.  It's ours for the fight."
Guitar 1
E------------------------------------------------------------------|
B----------6-------------------------------------------------------|
G----------5-----7-------------------------8-----------------------|
D----3-----3-----7-----7-------------------8--8--------------------|
A----3-----------5-----7---------6---8/10-----8------------8--10\--|
E----1-----------------5----------------------6------------6---8\--|

"And it's sweet,	 	sweet, 		sweet victory!	 Yeah!"
Guitar 1
E---------------------------------------------------------------------|
B---------------------------------------------------------------------|
G---------------------------------------------------------------------|
D-3-------------------------------------------------------------------|
A-3-------------------------------------------------------------------|
E-1------------1--3--5------------5--4--3--~---------3--5--6---6--5---|

Guitar 2
E------1------------------1-------------------------------------------|
B---------1------------------1--------------4-------------------------|
G------------2------------------2--------------3----------------------|
D-------------------------------------------------5-------------------|
A---------------------------------------------------------------------|
E---------------------------------------------------------------------|

"And the one who's last to fall				"The winner takes all"
Guitar 1
E---------------------------------------------------------------------------|
B---------------------------------------------------------------------------|
G---------------------------------------------------------------------------|
D-5--------5--------5--------------/8--8--8--8--8------8-----------------7--|
A-5--.--.--5--.--.--5--.--.--------/6--6--6--6--6---8--6-----------------5--|
E-3--3--3--3--3--3--3--3--3--3--1-------------------6-----------------------|

Solo 1
Guitar 1
E-----------------------------------------------------|
B-----------------------------------------------------|
G-----------------------------------------------------|
D-------------5------------------7--------------------|
A-------------3------------------5----------------7---|
E-------------------------------------------------5---|

Guitar 3
E-5----------------5------------------5---------------|
B----8--6--5--6--------8---6--5--6-------8--6--5--5---|
G-----------------------------------------------------|
D-----------------------------------------------------|
A-----------------------------------------------------|
E-----------------------------------------------------|

"You don't win no silver, You only lose the gold. You push the fever,"
Guitar 1
E------5--------------1--------------3--------------5--------------|
B---------5--------------1--------------3--------------5-----------|
G------------7--------------2--------------5--------------7--------|
D-7--------------3--------------5--------------7-------------------|
A-5--------------1--------------3--------------5-------------------|
E------------------------------------------------------------------|

Guitar 3
E------------------------------------------------------------------|
B------------------------------------------------------------------|
G-7~~~~\-----------------------------------12b14r12p10--12--10-----|
D---------------------------------------------------------------12~|
A------------------------------------------------------------------|
E------------------------------------------------------------------|

"When our time keeps tolling on."
Guitar 1
E-----5-------------1-------------3-------------5----------|
B--------5-------------1-------------3-------------5-------|
G-----------7-------------2-------------5-------------7----|
D-7-------------3-------------5-------------7--------------|
A-5-------------1-------------3-------------5--------------|
E----------------------------------------------------------|

Guitar 3
E---------------------------------------------------10--------------------------|
B-------------------------------------------13b15~~~----13--10------------------|
G---------------------------------------------------------------13p11p10----10~~|
D-(12)~~~~\--------------------------------------------------------------12-----|
A-------------------------------------------------------------------------------|
E-------------------------------------------------------------------------------|

"Against all the odds, Against all your pain. Your back's on the wall,"
E-----1------------1-------1----------------1--------|
B--------1------------1----1-------------------1-----|
G-----------2--5--------2--2------------5---------2--|
D-3------------5-----------3------------5------------|
A-3------------3-----------3--------0---3------------|
E-1------------------------1---1h3-------------------|

"with no one to blame.	  		Wild hearts won't be tamed."
Guitar 1
E------------------------------------------------------------------------|
B------------------------------------------------------------------------|
G----------------------------------------------------5-------------------|
D-------------3--.--.--3--.--.--3--.--.--------------5-------------------|
A-------------1--1--1--1--1--1--1--1--1--1--0--------3-------------------|
E----------------------------------------------3--1----------------------|

Guitar 2
E----------------------------------------------------------------17DB----|
B------------------------------------------------------------------------|
G------------------------------------------------------------------------|
D------------------------------------------------------------------------|
A------------------------------------------------------------------------|
E------------------------------------------------------------------------|

Chorus:
"And it's sweet,		 sweet, 		sweet victory! 	Yeah!"
Guitar 1
E--------------------------------------------------------------------------|
B--------------------------------------------------------------------------|
G--------------------------------------------------------------------------|
D-3------------------------------------------------------------------------|
A-3------------------------------------------------------------5--6--7--8--|
E-1------------1--3--5------------5--4--3------------3--5--6---------------|

Guitar 2
E------1------------------1------------------------------------------------|
B---------1------------------1--------------4------------------------------|
G------------2------------------2--------------3---------------------------|
D-------------------------------------------------5------------------------|
A--------------------------------------------------------------------------|
E--------------------------------------------------------------------------|

"And it's ours for the taking.  It's ours for the fight."
Guitar 1
E------------------------------------------------------------------|
B----------6-------------------------------------------------------|
G----------5-----7-------------------------8-----------------------|
D----3-----3-----7-----7-------------------8--8--------------------|
A----3-----------5-----7---------6---8/10-----8------------8--10\--|
E----1-----------------5----------------------6------------6---8\--|

Fill (Guitar 3)
E------------------------------------------------13~~~~------------|
B-11b13~~~~10--11--10p11p10----------------------------------------|
G---------------------------12--12b14r12p10------------------------|
D--------------------------------------------12--------------------|
A------------------------------------------------------------------|
E------------------------------------------------------------------|

"And it's sweet,	 	sweet, 		sweet victory!	 Yeah!"
Guitar 1
E---------------------------------------------------------------------|
B---------------------------------------------------------------------|
G---------------------------------------------------------------------|
D-3-------------------------------------------------------------------|
A-3-------------------------------------------------------------------|
E-1------------1--3--5------------5--4--3--~---------3--5--6---6--5---|

Guitar 2
E------1------------------1-------------------------------------------|
B---------1------------------1--------------4-------------------------|
G------------2------------------2--------------3----------------------|
D-------------------------------------------------5-------------------|
A---------------------------------------------------------------------|
E---------------------------------------------------------------------|

Fill (Guitar 3)
E-15b17-----17r15p13h15p13~~--|
B-----------------------------|
G-----------------------------|
D-----------------------------|
A-----------------------------|
E-----------------------------|

"And the one who's last to fall		          "The winner takes..."
Guitar 1
E----------------------------------------------------------------------|
B----------------------------------------------------------------------|
G-----------------------------------8----------------------------------|
D-5--------5--------5---------------8-----.--.--.--.--.--.-------------|
A-5--.--.--5--.--.--5--.--.---------6--6--6--6--6--6--6--6--/10--8--6--|
E-3--3--3--3--3--3--3--3--3--3--1--------------------------------------|

"a - a  - ll  a  - a - ll"
Guitar 2
E------------------------------------------------------------------------|
B------------------------------------------------------------------------|
G-12b13---12---10---12b13---12---10---12~~~--10--10-/12------------------|
D--------------------------------------------------------10--\8----------|
A----------------------------------------------------------------10------|
E--------------------------------------------------------------------11--|

						    "Take it"
E---------------------------------------------------------------------|
B---------------------------------------------------------------------|
G---------------------------------------------------------------------|
D----------------------------------------10---------------------------|
A-8--8--8--8--8--8--8--8--8--8--8--8--8---8--10-----------------------|
E-8--8--8--8--8--8--8--8--8--8--8--8--8-------8-----------------------|

Solo 2 (Rhythm Guitar plays Chorus)
Guitar 3
E-----------------------------------------------------------------------|
B---------10---------10-----------10---------10-------------------------|
G-12b14-------12b14--------12b14-------12b14------12b14--12b14--r12p10--|
D-----------------------------------------------------------------------|
A-----------------------------------------------------------------------|
E-----------------------------------------------------------------------|

E----------------------------------------------------------13~~~-15b17--|
B-----------------------------------ph----10--11--13--/15---------------|
G-----10h12~~~--------10h12p10------10----------------------------------|
D-12-----------10h12------------12--------------------------------------|
A-----------------------------------------------------------------------|
E-----------------------------------------------------------------------|

E-15b17---15b17---15b17-----------13------------------------------------|
B-15b17-----------15b17--16b18~~~~---16p13----13------------------------|
G------------------------------------------16----16p15p13----13h15p13~~~|
D---------------------------------------------------------15------------|
A-----------------------------------------------------------------------|
E-----------------------------------------------------------------------|

E-17--18--20--20b22~~~~20--18--17--18--17h18p17-------------------------|
B------------------------------------------------20p18--17--18--17h18p17|
G-----------------------------------------------------------------------|
D-----------------------------------------------------------------------|
A-----------------------------------------------------------------------|
E-----------------------------------------------------------------------|

E---------------------16b18~~~16b18--16--13--16p13--13h16p13---------16-|
B--17h18p17--15~~~13------------------------------------------16b18-----|
G-----------------------------------------------------------------------|
D-----------------------------------------------------------------------|
A-----------------------------------------------------------------------|
E-----------------------------------------------------------------------|

	"And the one who's last to fall!"
Guitar 2
E-----------13b15------(13)---------------------------------------------|
B-16b18~~~~~------------------------------------------------------------|
G------------------------------------*drums*----------------------------|
D-----------------------------------------------------------------------|
A-----------------------------------------------------------------------|
E-----------------------------------------------------------------------|

Guitar 3
E-13b15------(13)-------------------------------------------------------|
B-----------------------------------------------------------------------|
G------------------------------------*drums*-------14r12p10------10~~~~~|
D------------------------------------------------------------12---------|
A-----------------------------------------------------------------------|
E-----------------------------------------------------------------------|

Chorus:
"And it's sweet,		 sweet, 		sweet victory! 	Yeah!"
Guitar 1
E--------------------------------------------------------------------------|
B--------------------------------------------------------------------------|
G--------------------------------------------------------------------------|
D-3------------------------------------------------------------------------|
A-3------------------------------------------------------------5--6--7--8--|
E-1------------1--3--5------------5--4--3------------3--5--6---------------|

Guitar 2
E------1------------------1------------------------------------------------|
B---------1------------------1--------------4------------------------------|
G------------2------------------2--------------3---------------------------|
D-------------------------------------------------5------------------------|
A--------------------------------------------------------------------------|
E--------------------------------------------------------------------------|

"And it's ours for the taking.  It's ours for the fight."
Guitar 1
E------------------------------------------------------------------|
B----------6-------------------------------------------------------|
G----------5-----7-------------------------8-----------------------|
D----3-----3-----7-----7-------------------8--8--------------------|
A----3-----------5-----7---------6---8/10-----8------------8--10\--|
E----1-----------------5----------------------6------------6---8\--|

"And it's sweet,	 	sweet, 		sweet victory!	 Yeah!"
Guitar 1
E---------------------------------------------------------------------|
B---------------------------------------------------------------------|
G---------------------------------------------------------------------|
D-3-------------------------------------------------------------------|
A-3-------------------------------------------------------------------|
E-1------------1--3--5------------5--4--3--~---------3--5--6---6--5---|

Guitar 2
E------1------------------1-------------------------------------------|
B---------1------------------1--------------4-------------------------|
G------------2------------------2--------------3----------------------|
D-------------------------------------------------5-------------------|
A---------------------------------------------------------------------|
E---------------------------------------------------------------------|

"And the one who's last to fall		          "The winner takes all..."
Guitar 1
E------------------------------------------------------------------------|
B------------------------------------------------------------------------|
G------------------------------------------------------------------------|
D-5--------5--------5--------------/8--8--8--8--8--------8---------8-----|
A-5--.--.--5--.--.--5--.--.--------/6--6--6--6--6-----8--6------8--6-----|
E-3--3--3--3--3--3--3--3--3--3--1---------------------6---------6--------|
comments
print report bad tab
1 comment total.
0 reply
MuffinMan227 wrote on February 4 2014, 11:18 am

Looks good!

I want to post or [tab]
guest
You may want to rate the tab now too:
select rating
Please do not post tabs as comments. Select "correction" instead!