Oops, an error
Loading. Please wait.

King Of The Hill Tab

3,463 views 1 this week
no commentswrite comment
1 2 3 4 5
please rate
Autoscroll
+/-
esc
set tempo
stop
WARNING: You are trying to view
                                    content from Ultimate-Guitar.com
                                    in an unauthorized application,
                                    which is prohibited.

                                    Please use an official Ultimate
                                    Guitar Tabs application for iPhone,
                                    iPad or Android to access legitimate
                                    chords, guitar, bass, and drum tabs
                                    from Ultimate-Guitar.com database.

                                    Type "ultimate guitar tabs" in Apple
                                    App Store's or Android Market's
                                    search to find the application.
Song: King of the Hill
Arist: David Lee Roth
Written by: Mike Hartman
Lyrics by: David Lee Roth
Rating: 5 of 5
Album: DLR Band
tabed by: Per "$toned" Stenberg
fanta98@hotmail.com
Standard Tunning (E)


Damn! This song is the coolest song I've heard to date.
Hartmans guitar kills everything in sight so wacht out.
I would like to see John Lowery play this live but he couldn't
becase after the CD he join Marilyn Manson. This was a bitch tabing
so there is alot of errors I guess but it is still a good tab!
The timing isn't that good!!!!


Intro
The spaces on the Gtr2 isn't correct.


    |-----------------------------------------------------------|
    |-----------------------------------------------------------|
Gtr1|/9-11-11----9-11----/12-11-9-11-----/9-11-11----9-11----11~|
    |---------11------11-------------11-----------11------11----|
    |-----------------------------------------------------------|
    |-----------------------------------------------------------|
    |
    |-----------------------------------------------------------|
    |-----------------------------------------------------------|
Gtr2|-9-11-11-6-9-11-6--12-11-9-11-9-6--9-11-11-6-9-11-6--------|
    |-9-11-11-6-9-11-6--12-11-9-11-9-6--9-11-11-6-9-11-6--------|
    |-7-9--9--4-7-9--4--10-9--7-9--7-4--7-9--9--4-7-9--4--------|
    |-----------------------------------------------------------|    |--------------------------------------------------------|
    |--------------------------------------------------------|
Gtr1|/9-11-11----9-11----/12-11-9-11-----/9-11-11----9-11----|
    |---------11------11-------------11-----------11------11\|
    |--------------------------------------------------------|
    |--------------------------------------------------------|
    |
    |--------------------------------------------------------|
    |--------------------------------------------------------|
Gtr2|-9-11-11-6-9-11-6--12-11-9-11-9-6--9-11-11-6-9-11-6-----|
    |-9-11-11-6-9-11-6--12-11-9-11-9-6--9-11-11-6-9-11-6-----|
    |-7-9--9--4-7-9--4--10-9--7-9--7-4--7-9--9--4-7-9--4-----|
    |--------------------------------------------------------|Verse
This was impossible to tab so I did my best.
So about 10% of this is correct. Listen to the song
to understand the wierd rhythm of the rhythm guitar.


    |-----------------------------------------------------|
    |-----------------------------------------------------|
Gtr1|-------------------------9------------9------------9-|
    |-2---2--2--5---2---2--2--9--2---2--2--9--2---2--2--9-|
    |-2---2--2--5---2---2--2--7--2---2--2--7--2---2--2--7-|
    |-0---0--0--3---0---0--0-----0---0--0-----0---0--0----|
    |                       T         T          T
    |--------------?-------15p13p10p8----------------------|
    |--------------?-----------------15p13p10p8------------|
Gtr2|--------------?----------------------------15p13p10p8-|
    |--------------?---------------------------------------|
    |--------------?---------------------------------------|
    |--------------?---------------------------------------|Chours

    |-----------------------------------------------------------|
    |-----------------------------------------------------------|
Gtr1|/9-11-11----9-11----/12-11-9-11-----/9-11-11----9-11----11~|
    |---------11------11-------------11-----------11------11----|
    |-----------------------------------------------------------|
    |-----------------------------------------------------------|
    |
    |-----------------------------------------------------------|
    |-----------------------------------------------------------|
Gtr2|-9-11-11-6-9-11-6--12-11-9-11-9-6--9-11-11-6-9-11-6--------|
    |-9-11-11-6-9-11-6--12-11-9-11-9-6--9-11-11-6-9-11-6--------|
    |-7-9--9--4-7-9--4--10-9--7-9--7-4--7-9--9--4-7-9--4--------|
    |-----------------------------------------------------------|    |--------------------------------------------------------|
    |--------------------------------------------------------|
Gtr1|/9-11-11----9-11----/12-11-9-11-----/9-11-11----9-11----|
    |---------11------11-------------11-----------11------11\|
    |--------------------------------------------------------|
    |--------------------------------------------------------|
    |
    |--------------------------------------------------------|
    |--------------------------------------------------------|
Gtr2|-9-11-11-6-9-11-6--12-11-9-11-9-6--9-11-11-6-9-11-6-----|
    |-9-11-11-6-9-11-6--12-11-9-11-9-6--9-11-11-6-9-11-6-----|
    |-7-9--9--4-7-9--4--10-9--7-9--7-4--7-9--9--4-7-9--4-----|
    |--------------------------------------------------------|

  

Bridge
Keep playing faster and faster.


    |-------------------------------------------------------------|
    |-12p11h12p11h12p11h12p11---8h10p8---14b-12h14p12----12h14p12-|
Gtr1|-------------------------9-----------------------------------|
    |-------------------------------------------------14----------|
    |-------------------------------------------------------------|
    |-------------------------------------------------------------|
    |
    |
    |-------------------------------------------------------------|
Bass|-------------------------------------------------------------|
    |-------------------------7-------------7-----------7---------|
    |-0---0--0--3---0---0--0-----0---0--0-----0---0--0------------|


    |----------------------------15p13p10p8-----------------------|
    |-12b-10h12p10--------------------------15p13p10p8------------|
Gtr1|-----------------10h12p10-------------------------15p13p10p8-|
    |--------------12---------------------------------------------|
    |-------------------------------------------------------------|
    |-------------------------------------------------------------|
    |
    |
    |-------------------------------------------------------------|
Bass|-------------------------------------------------------------|
    |-------------------------7-------------7-----------7---------|
    |-0---0--0--3---0---0--0-----0---0--0-----0---0--0------------|Chours

    |--------------------------------------------------9-------9|
    |----------------------------------------------------12p9---|
Gtr1|/9-11-11----9-11----/12-11-9-11-----/9-11-11--11b----------|
    |---------11------11-------------11-------------------------|
    |-----------------------------------------------------------|
    |-----------------------------------------------------------|
    |
    |-----------------------------------------------------------|
    |-----------------------------------------------------------|
Gtr2|-9-11-11-6-9-11-6--12-11-9-11-9-6--9-11-11-6-9-11-6--------|
    |-9-11-11-6-9-11-6--12-11-9-11-9-6--9-11-11-6-9-11-6--------|
    |-7-9--9--4-7-9--4--10-9--7-9--7-4--7-9--9--4-7-9--4--------|
    |-----------------------------------------------------------|    |--------------------------------------------------------|
    |--------------------------------------------------------|
Gtr1|/9-11-11----9-11----/12-11-9-11-----/9-11-11----9-11----|
    |---------11------11-------------11-----------11------11\|
    |--------------------------------------------------------|
    |--------------------------------------------------------|
    |
    |--------------------------------------------------------|
    |--------------------------------------------------------|
Gtr2|-9-11-11-6-9-11-6--12-11-9-11-9-6--9-11-11-6-9-11-6-----|
    |-9-11-11-6-9-11-6--12-11-9-11-9-6--9-11-11-6-9-11-6-----|
    |-7-9--9--4-7-9--4--10-9--7-9--7-4--7-9--9--4-7-9--4-----|
    |--------------------------------------------------------|

                                                  |Repet 3 times|
    |-------------------------------------------------9----------|
    |---------------------------------------------12b---12p9-12b-|
Gtr1|/9-11-11----9-11----/12-11-9-11-----/9-11-11----------------|
    |---------11------11-------------11--------------------------|
    |------------------------------------------------------------|
    |------------------------------------------------------------|
    |
    |------------------------------------------------------------|
    |------------------------------------------------------------|
Gtr2|-9-11-11-6-9-11-6--12-11-9-11-9-6--9-11-11-6-9-11-6---------|
    |-9-11-11-6-9-11-6--12-11-9-11-9-6--9-11-11-6-9-11-6---------|
    |-7-9--9--4-7-9--4--10-9--7-9--7-4--7-9--9--4-7-9--4---------|
    |------------------------------------------------------------|    |--------------------------------------------------------|
    |--------------------------------------------------------|
Gtr1|/9-11-11----9-11----/12-11-9-11-----/9-11-11----9-11----|
    |---------11------11-------------11-----------11------11\|
    |--------------------------------------------------------|
    |--------------------------------------------------------|
    |
    |--------------------------------------------------------|
    |--------------------------------------------------------|
Gtr2|-9-11-11-6-9-11-6--12-11-9-11-9-6--9-11-11-6-9-11-6-----|
    |-9-11-11-6-9-11-6--12-11-9-11-9-6--9-11-11-6-9-11-6-----|
    |-7-9--9--4-7-9--4--10-9--7-9--7-4--7-9--9--4-7-9--4-----|
    |--------------------------------------------------------|


Post Chours

    |---------------------------------------------------------|
    |---------------------------------------------------------|
Gtr1|-9-11-11----9-11---9-11-11----9-11---9-11-11----9h11p9/6-|
    |---------11----------------11----------------11----------|
    |---------------------------------------------------------|
    |---------------------------------------------------------|
    |
    |---------------------------------------------------------|
    |---------------------------------------------------------|
Gtr2|-9-11-11-6-9-11--9-11-11-6-9-11-9-11-11-6-9-11-9-6-------|
    |-9-11-11-6-9-11--9-11-11-6-9-11-9-11-11-6-9-11-9-6-------|
    |-7-9--9--4-7-9---7-9--9--4-7-9--7-9--9--4-7-9--7-4-------|
    |---------------------------------------------------------|


Break

   
    |-----------------------------------------------------------------|
    |-----------------------------------------------------------------|
Gtr1|-6-5-3-3h5-5-------------8-10-8-6-6h8-8---------------6-5-3-3h5-5|
    |-----------------------------------------------------------------|
    |-----------------------------------------------------------------|
    |-----------------------------------------------------------------|
    |
    |-----------------------------------------------------------------|
Bass|-----------------------------------------------------------------|
    |-----------------------------------------------------------------|
    |-------------0-2-0-2-0-2-----------------0-2-0-2-0-2-------------|
   
    |-----------------------------------------------------------------|
    |-----------------------------------------------------------------|
Gtr1|--------------8-10-8-6-6h8-8--------------4-3-1-1h3-3------------|
    |-----------------------------------------------------------------|
    |-----------------------------------------------------------------|
    |-----------------------------------------------------------------|
    | 
    |-----------------------------------------------------------------|
Bass|-----------------------------------------------------------------|
    |-----------------------------------------------------------------|
    |-0-2-0-2-0-2-----------------0-2-0-2-0-2--------------0-2-0-2-0-2|    |------------------------------------------------------------------|
    |------------------------------------------------------------------|
Gtr1|/6-8-6-4-4h6-6------------4-3-1-1h3-3---------------/6-8-6-4-4k6-6|
    |------------------------------------------------------------------|
    |------------------------------------------------------------------|
    |------------------------------------------------------------------|
    |
    |------------------------------------------------------------------|
Bass|------------------------------------------------------------------|
    |------------------------------------------------------------------|
    |-------------0-2-0-2-0-2---------------0-2-0-2-0-2----------------|Solo 1

    |--------------------------------------------------14h16p14h16b-16b|
    |-15b-15b--15----------15----------15------------------------------|
Gtr1|-14b-14b-----16\14/16----16\14/16----16\14/16\14------------------|
    |------------------------------------------------------------------|
    |------------------------------------------------------------------|
    |------------------------------------------------------------------|
    |
    |------------------------------------------------------------------|
Bass|------------------------------------------------------------------|
    |------------------------------------------------------------------|
    |-0-2-0-2-0-2-3-2-0-2-3-2-0-2-0-2-0-2-3-2-0-2-3-2-0-2-0-2-0-2-3-2-0|
    


    |-16b-16b-16b-16br-14h16p14h16p14---------12-12h15p12h14p12h15p12h14|
    |-------------------------------------------------------------------|
Gtr1|------------------------------------14b----------------------------|
    |-------------------------------------------------------------------|
    |-------------------------------------------------------------------|
    |-------------------------------------------------------------------|
    |
    |-------------------------------------------------------------------|
Bass|-------------------------------------------------------------------|
    |-------------------------------------------------------------------|
    |-0-2-0-2-0-2-3-2-0-2-3-2-0-2-0-2-0-2-3-2-0-2-3-2-0-2-0-2-0-2-3-2-0-|

                                                           T
    |p12---------------------------------------------------17p15p12p10|
    |---12h15p12h14p12h15p12h14p12------------------------------------|
Gtr1|------------------------------12h15p12h14p12-15br-12~------------|
    |-----------------------------------------------------------------|
    |-----------------------------------------------------------------|
    |-----------------------------------------------------------------|
    |
    |-----------------------------------------------------------------|
    |-----------------------------------------------------------------|
Bass|-----------------------------------------------------------------|
    |-----------------------------------------------------------------|
    |0-2-0-2-0-2-3-2-0-2-3-2-0-2-0-2-0-2-3-2-0-2-3-2-0-2-0-2-0-2-3-2-0|


     T           T           T           T           T
    |17p15p12p10-17p15p12p10-17p15p12p10-17p15p12p10-17p15p12p10-10~|
    |---------------------------------------------------------------|
Gtr1|---------------------------------------------------------------|
    |---------------------------------------------------------------|
    |---------------------------------------------------------------|
    |---------------------------------------------------------------|
    |
    |---------------------------------------------------------------|
Bass|---------------------------------------------------------------|
    |---------------------------------------------------------------|
    |-0-2-0-2-0-2-3-2-0-2-3-2-0-2-0-2-0-2-3-2-0-2-3-2-0-2-0-2-0-2-3-|
    


        T           T           T           T
    |~~-17p15p12p10-17p15p12p10-17p15p12p10-17p15p12p10----------------|
    |------------------------------------------------------------------|
Gtr1|------------------------------------------------------------------|
    |------------------------------------------------------------------|
    |------------------------------------------------------------------|
    |---------------------------------------------------9-10-12-9-10-12|
    |
    |-------------------------------------------------------------------|
Bass|-------------------------------------------------------------------|
    |-------------------------------------------------------------------|
    |2-0-2-0-2-0-2-3-2-0-2-3-2-0-2-0-2-0-2-3-2-0-2-3-2-0-2-0-2-0-2-3-2-0|    |-------------------------------------------|
    |-------------------------------------------|
Gtr1|---------------------------------12b~------|
    |-----------------9-10-12-9-10-12-----------|
    |-9-10-12-9-10-12---------------------------|
    |-------------------------------------------|
    |
    |-------------------------------------------|
Bass|-------------------------------------------|
    |-------------------------------------------|
    |-0-2-0-2-0-2-3-2-0-2-3-2-0-2-0-2-0-2-3-2-0-|


Chours

    |--------------------------------------------------9-------9|
    |----------------------------------------------------12p9---|
Gtr1|/9-11-11----9-11----/12-11-9-11-----/9-11-11--11b----------|
    |---------11------11-------------11-------------------------|
    |-----------------------------------------------------------|
    |-----------------------------------------------------------|
    |
    |-----------------------------------------------------------|
    |-----------------------------------------------------------|
Gtr2|-9-11-11-6-9-11-6--12-11-9-11-9-6--9-11-11-6-9-11-6--------|
    |-9-11-11-6-9-11-6--12-11-9-11-9-6--9-11-11-6-9-11-6--------|
    |-7-9--9--4-7-9--4--10-9--7-9--7-4--7-9--9--4-7-9--4--------|
    |-----------------------------------------------------------|    |--------------------------------------------------------|
    |--------------------------------------------------------|
Gtr1|/9-11-11----9-11----/12-11-9-11-----/9-11-11----9-11----|
    |---------11------11-------------11-----------11------11\|
    |--------------------------------------------------------|
    |--------------------------------------------------------|
    |
    |--------------------------------------------------------|
    |--------------------------------------------------------|
Gtr2|-9-11-11-6-9-11-6--12-11-9-11-9-6--9-11-11-6-9-11-6-----|
    |-9-11-11-6-9-11-6--12-11-9-11-9-6--9-11-11-6-9-11-6-----|
    |-7-9--9--4-7-9--4--10-9--7-9--7-4--7-9--9--4-7-9--4-----|
    |--------------------------------------------------------|

                                                  |Repet 3 times|
    |-------------------------------------------------9----------|
    |---------------------------------------------12b---12p9-12b-|
Gtr1|/9-11-11----9-11----/12-11-9-11-----/9-11-11----------------|
    |---------11------11-------------11--------------------------|
    |------------------------------------------------------------|
    |------------------------------------------------------------|
    |
    |------------------------------------------------------------|
    |------------------------------------------------------------|
Gtr2|-9-11-11-6-9-11-6--12-11-9-11-9-6--9-11-11-6-9-11-6---------|
    |-9-11-11-6-9-11-6--12-11-9-11-9-6--9-11-11-6-9-11-6---------|
    |-7-9--9--4-7-9--4--10-9--7-9--7-4--7-9--9--4-7-9--4---------|
    |------------------------------------------------------------|    |--------------------------------------------------------|
    |--------------------------------------------------------|
Gtr1|/9-11-11----9-11----/12-11-9-11-----/9-11-11----9-11----|
    |---------11------11-------------11-----------11------11\|
    |--------------------------------------------------------|
    |--------------------------------------------------------|
    |
    |--------------------------------------------------------|
    |--------------------------------------------------------|
Gtr2|-9-11-11-6-9-11-6--12-11-9-11-9-6--9-11-11-6-9-11-6-----|
    |-9-11-11-6-9-11-6--12-11-9-11-9-6--9-11-11-6-9-11-6-----|
    |-7-9--9--4-7-9--4--10-9--7-9--7-4--7-9--9--4-7-9--4-----|
    |--------------------------------------------------------|


Solo 2

    |------------------------------------------------10------|
    |-9h12p9h11p9h12p9h11p9h12p9h11p9---8h10p8--13b-----13p10|
Gtr1|---------------------------------9----------------------|
    |--------------------------------------------------------|
    |--------------------------------------------------------|
    |--------------------------------------------------------|
    |
    |--------------------------------------------------------|
Bass|--------------------------------------------------------|
    |-------------------------7-------------7-----------7|---|
    |-0---0--0--3---0---0--0-----0---0--0-----0---0--0-------|
        |------10-------------10-------------10-16p14p11p9-16p14|
    |-13b-----13p10--13b-----13p10--13b---------------------|
Gtr1|-------------------------------------------------------|
    |-------------------------------------------------------|
    |-------------------------------------------------------|
    |-------------------------------------------------------|
    |
    |-------------------------------------------------------|
Bass|-------------------------------------------------------|
    |-------------------------7-------------7-----------7---|
    |-0---0--0--3---0---0--0-----0---0--0-----0---0--0------|
    


    |p11p9-16p14p11p9-16p14p11p9-11b-11b-|
    |------------------------------------|
Gtr1|------------------------------------|
    |------------------------------------|
    |------------------------------------|
    |------------------------------------|
    |
    |----------------------------------------------------|
Bass|----------------------------------------------------|
    |-------------------------7-------------7-----------7|
    |-0---0--0--3---0---0--0-----0---0--0-----0---0--0---|
    


Chours

    |--------------------------------------------------9-------9|
    |----------------------------------------------------12p9---|
Gtr1|/9-11-11----9-11----/12-11-9-11-----/9-11-11--11b----------|
    |---------11------11-------------11-------------------------|
    |-----------------------------------------------------------|
    |-----------------------------------------------------------|
    |
    |-----------------------------------------------------------|
    |-----------------------------------------------------------|
Gtr2|-9-11-11-6-9-11-6--12-11-9-11-9-6--9-11-11-6-9-11-6--------|
    |-9-11-11-6-9-11-6--12-11-9-11-9-6--9-11-11-6-9-11-6--------|
    |-7-9--9--4-7-9--4--10-9--7-9--7-4--7-9--9--4-7-9--4--------|
    |-----------------------------------------------------------|    |--------------------------------------------------------|
    |--------------------------------------------------------|
Gtr1|/9-11-11----9-11----/12-11-9-11-----/9-11-11----9-11----|
    |---------11------11-------------11-----------11------11\|
    |--------------------------------------------------------|
    |--------------------------------------------------------|
    |
    |--------------------------------------------------------|
    |--------------------------------------------------------|
Gtr2|-9-11-11-6-9-11-6--12-11-9-11-9-6--9-11-11-6-9-11-6-----|
    |-9-11-11-6-9-11-6--12-11-9-11-9-6--9-11-11-6-9-11-6-----|
    |-7-9--9--4-7-9--4--10-9--7-9--7-4--7-9--9--4-7-9--4-----|
    |--------------------------------------------------------|

                                                  |Repet 3 times|
    |-------------------------------------------------9----------|
    |---------------------------------------------12b---12p9-12b-|
Gtr1|/9-11-11----9-11----/12-11-9-11-----/9-11-11----------------|
    |---------11------11-------------11--------------------------|
    |------------------------------------------------------------|
    |------------------------------------------------------------|
    |
    |------------------------------------------------------------|
    |------------------------------------------------------------|
Gtr2|-9-11-11-6-9-11-6--12-11-9-11-9-6--9-11-11-6-9-11-6---------|
    |-9-11-11-6-9-11-6--12-11-9-11-9-6--9-11-11-6-9-11-6---------|
    |-7-9--9--4-7-9--4--10-9--7-9--7-4--7-9--9--4-7-9--4---------|
    |------------------------------------------------------------|    |--------------------------------------------------------|
    |--------------------------------------------------------|
Gtr1|/9-11-11----9-11----/12-11-9-11-----/9-11-11----9-11----|
    |---------11------11-------------11-----------11------11\|
    |--------------------------------------------------------|
    |--------------------------------------------------------|
    |
    |--------------------------------------------------------|
    |--------------------------------------------------------|
Gtr2|-9-11-11-6-9-11-6--12-11-9-11-9-6--9-11-11-6-9-11-6-----|
    |-9-11-11-6-9-11-6--12-11-9-11-9-6--9-11-11-6-9-11-6-----|
    |-7-9--9--4-7-9--4--10-9--7-9--7-4--7-9--9--4-7-9--4-----|
    |--------------------------------------------------------|Outro

                                                  |Play twice|
    |----------------------------------------------------------------|
    |----------------------------------------------------------------|
Gtr1|/9-11-11----9-11----/12-11-9-11-----/9-11-11-12h15p12h14------12|
    |---------11------11-------------11----------------------15-12---|
    |----------------------------------------------------------------|
    |----------------------------------------------------------------|
    |
    |----------------------------------------------------------------|
    |----------------------------------------------------------------|
Gtr2|-9-11-11-6-9-11-6--12-11-9-11-9-6--9-11-11-6-9-11-6-------------|
    |-9-11-11-6-9-11-6--12-11-9-11-9-6--9-11-11-6-9-11-6-------------|
    |-7-9--9--4-7-9--4--10-9--7-9--7-4--7-9--9--4-7-9--4-------------|
    |----------------------------------------------------------------|    |--------------------------------------------------------|
    |--------------------------------------------------------|
Gtr1|/9-11-11----9-11----/12-11-9-11-----/9-11-11----9-11----|
    |---------11------11-------------11-----------11------11\|
    |--------------------------------------------------------|
    |--------------------------------------------------------|
    |
    |--------------------------------------------------------|
    |--------------------------------------------------------|
Gtr2|-9-11-11-6-9-11-6--12-11-9-11-9-6--9-11-11-6-9-11-6-----|
    |-9-11-11-6-9-11-6--12-11-9-11-9-6--9-11-11-6-9-11-6-----|
    |-7-9--9--4-7-9--4--10-9--7-9--7-4--7-9--9--4-7-9--4-----|
    |--------------------------------------------------------|    |-------------------------------------------------------------|
    |-------------------------------------------------------------|
Gtr1|-9-11-11----9-11---9-11-11----9-11---9-11-11----9h11p9/6-----|
    |---------11----------------11----------------11--------------|
    |-------------------------------------------------------------|
    |-------------------------------------------------------------|
    |
    |-------------------------------------------------------------|
    |-------------------------------------------------------------|
Gtr2|-9-11-11-6-9-11--9-11-11-6-9-11-9-11-11-6-9-11-9-6-----------|
    |-9-11-11-6-9-11--9-11-11-6-9-11-9-11-11-6-9-11-9-6---------11|
    |-7-9--9--4-7-9---7-9--9--4-7-9--7-9--9--4-7-9--7-4---------11|
    |-----------------------------------------------------------9-|

ta da!
comments
We did not receive enough feedback on this tab! Please rate:
print report bad tab
1 2 3 4 5
I want to post or [tab]
guest
You may want to rate the tab now too:
select rating
Please do not post tabs as comments. Select "correction" instead!