Oops, an error
Loading. Please wait.

Not Anymore Tab

2,825 views 18 this week
no commentswrite comment
1 2 3 4 5
excellent!
x 2
Autoscroll
+/-
esc
set tempo
stop
Contributor
Difficulty
Tuning
E A D G B E
WARNING: You are trying to view
                                    content from Ultimate-Guitar.com
                                    in an unauthorized application,
                                    which is prohibited.

                                    Please use an official Ultimate
                                    Guitar Tabs application for iPhone,
                                    iPad or Android to access legitimate
                                    chords, guitar, bass, and drum tabs
                                    from Ultimate-Guitar.com database.

                                    Type "ultimate guitar tabs" in Apple
                                    App Store's or Android Market's
                                    search to find the application.
Dead Boys – Not Anymore

Tuning=Standard
try to play it while you're listening to the song and enjoy it!

1st guitar:
|-----------1-----------------------1--------------------------------------------------------------|
|--------3-----3-----------------3-----3--------------------3-----------------------3-----2--------|
|-----2-----------2----2------2-----------2-----2--------3--------3-----3--------2--------------2--|
|--0-----------------3-----0--------------------------3-----------------------2--------------------|
|-------------------------------------------3------1-----------------1------0----------------------|
|--------------------------------------------------------------------------------------------------|

1st guitar:
|-----------1-----------------------1--------------------------------------------------------------|
|--------3-----3-----------------3-----3--------------------3-----------------------3-----2--------|
|-----2-----------2----2------2-----------2-----2--------3--------3-----3--------2--------------2--|
|--0-----------------3-----0--------------------------3-----------------------2--------------------|
|-------------------------------------------3------1-----------------1------0----------------------|
|--------------------------------------------------------------------------------------------------|
|2nd guitar:
|--1--1--1--1--1--1--1--1--1--1--1--1--1--1--1--1--------------------------------------------------|
|--3--3--3--3--3--3--3--3--3--3--3--3--3--3--3--3--3--3--3--3--3--3--3--3--2--2--2--2--2--2--2--2--|
|--2--2--2--2--2--2--2--2--2--2--2--2--2--2--2--2--3--3--3--3--3--3--3--3--2--2--2--2--2--2--2--2--|
|--0--0--0--0--0--0--0--0--0--0--0--0--0--0--0--0--3--3--3--3--3--3--3--3--2--2--2--2--2--2--2--2--|
|--------------------------------------------------1--1--1--1--1--1--1--1--0--0--0--0--0--0--0--0--|
|--------------------------------------------------------------------------------------------------|

|-----------1-----------------------1--------------------------------------------------------------|
|--------3-----3-----------------3-----3--------------------3-----------------------3-----2--------|
|-----2-----------2----2------2-----------2-----2--------3--------3-----3--------2--------------2--|
|--0-----------------3-----0--------------------------3-----------------------2--------------------|
|-------------------------------------------3------1-----------------1------0----------------------|
|--------------------------------------------------------------------------------------------------|
|
|--1--1--1--1--1--1--1--1--1--1--1--1--1--1--1--1--------------------------------------------------|
|--3--3--3--3--3--3--3--3--3--3--3--3--3--3--3--3--3--3--3--3--3--3--3--3--2--2--2--2--2--2--2--2--|
|--2--2--2--2--2--2--2--2--2--2--2--2--2--2--2--2--3--3--3--3--3--3--3--3--2--2--2--2--2--2--2--2--|
|--0--0--0--0--0--0--0--0--0--0--0--0--0--0--0--0--3--3--3--3--3--3--3--3--2--2--2--2--2--2--2--2--|
|--------------------------------------------------1--1--1--1--1--1--1--1--0--0--0--0--0--0--0--0--|
|--------------------------------------------------------------------------------------------------|

|-----------1-----------------------1--------------------------------------------------------------|
|--------3-----3-----------------3--------3-----------------3-----------------------3-----2--------|
|-----2-----------2----2------2-----------------2--------3--------3-----3--------2--------------2--|
|--0-----------------3-----0--------------------------3-----------------------2--------------------|
|-------------------------------------------3------1-----------------1------0----------------------|
|--------------------------------------------------------------------------------------------------|
|
|--1--1--1--1--1--1--1--1--1--1--1--1--1--1--1--1--------------------------------------------------|
|--3--3--3--3--3--3--3--3--3--3--3--3--3--3--3--3--3--3--3--3--3--3--3--3--2--2--2--2--2--2--2--2--|
|--2--2--2--2--2--2--2--2--2--2--2--2--2--2--2--2--3--3--3--3--3--3--3--3--2--2--2--2--2--2--2--2--|
|--0--0--0--0--0--0--0--0--0--0--0--0--0--0--0--0--3--3--3--3--3--3--3--3--2--2--2--2--2--2--2--2--|
|--------------------------------------------------1--1--1--1--1--1--1--1--0--0--0--0--0--0--0--0--|
|--------------------------------------------------------------------------------------------------|

1st guitar only,play it like the riff above, the x is always muted
|-----------1-----------------------1--------------------------------------------------------------|
|--------x--------3--------------x--------3-----------------3-----------------------3-----2--------|
|-----x----------------x------x-----------------x--------x--------3-----x--------x--------------x--|
|--x-----------------x-----x--------------------------x-----------------------x--------------------|
|-------------------------------------------x------x-----------------x------x----------------------|
|--------------------------------------------------------------------------------------------------|

|-----------1-----------------------1--------------------------------------------------------------|
|--------x--------3--------------x--------3-----------------3-----------------------3-----2--------|
|-----x----------------x------x-----------------x--------x--------3-----x--------x--------------x--|
|--x-----------------x-----x--------------------------x-----------------------x--------------------|
|-------------------------------------------x------x-----------------x------x----------------------|
|--------------------------------------------------------------------------------------------------|

now 2nd guitar plays:
|----------------------------------------------------------------------------------------|
|--------------------------------------------3--3--3--3--3--3--3--3--3--3--3--3--3--3--3-|
|--3--3--3--3--3--3--3--3--3--3--3--3--3--3--2--2--2--2--2--2--2--2--2--2--2--2--2--2--2-|
|--3--3--3--3--3--3--3--3--3--3--3--3--3--3--0--0--0--0--0--0--0--0--0--0--0--0--0--0--0-|
|--1--1--1--1--1--1--1--1--1--1--1--1--1--1----------------------------------------------|
|----------------------------------------------------------------------------------------|

|----------------------------------------------------------------------------------------|
|--------------------------------------------3--3--3--3--3--3--3--3--3--3--3--3--3--3--3-|
|--3--3--3--3--3--3--3--3--3--3--3--3--3--3--2--2--2--2--2--2--2--2--2--2--2--2--2--2--2-|
|--3--3--3--3--3--3--3--3--3--3--3--3--3--3--0--0--0--0--0--0--0--0--0--0--0--0--0--0--0-|
|--1--1--1--1--1--1--1--1--1--1--1--1--1--1----------------------------------------------|
|----------------------------------------------------------------------------------------|

|----------------------------------------------------------------------------------------|
|-----5----5----5--5--5--9----9--9--9--9--9----3--3--3--3--3--3--3--3--3--3--3--3--3--3--|
|-----5----5----5--5--5--9----9--9--9--9--9----3--3--3--3--3--3--3--3--3--3--3--3--3--3--|
|-----5----5----5--5--5--9----9--9--9--9--9----3--3--3--3--3--3--3--3--3--3--3--3--3--3--|
|-----3----3----3--3--3--7----7--7--7--7--7----1--1--1--1--1--1--1--1--1--1--1--1--1--1--|
|----------------------------------------------------------------------------------------|

|--1----1----1--1--1-------------------------------1----1----1--1--1-------------------------------|
|--3----3----3--3--3--3----3--3--3--3--3--3--3--3--3----3----3--3--3--3----3--3--3--3--3--3--3--3--|
|--2----2----2--2--2--3----3--3--3--3--3--3--3--3--2----2----2--2--2--3----3--3--3--3--3--3--3--3--|
|--0----0----0--0--0--3----3--3--3--3--3--3--3--3--0----0----0--0--0--3----3--3--3--3--3--3--3--3--|
|---------------------1----1--1--1--1--1--1--1--1---------------------1----1--1--1--1--1--1--1--1--|
|--------------------------------------------------------------------------------------------------|

1st guitar:
|-----------1-----------------------1--------------------------------------------------------------|
|--------3-----3-----------------3--------3-----------------3-----------------------3-----2--------|
|-----2-----------2----2------2-----------------2--------3--------3-----3--------2--------------2--|
|--0-----------------3-----0--------------------------3-----------------------2--------------------|
|-------------------------------------------3------1-----------------1------0----------------------|
|--------------------------------------------------------------------------------------------------|
|2nd guitar:
|--------------------------------------------------------------------------------------------------|
|--------------------------------------------------------------------------------------------------|
|--------------------------------------------------------------------------------------------------|
|--------------------------------------------------------------------------------------------------|
|--5-----------------3-5--------------------5---3--1-----------------1------0----------------------|
|--------------------------------------------------------------------------------------------------|

|-----------1-----------------------1--------------------------------------------------------------|
|--------3-----3-----------------3--------3-----------------3-----------------------3-----2--------|
|-----2-----------2----2------2-----------------2--------3--------3-----3--------2--------------2--|
|--0-----------------3-----0--------------------------3-----------------------2--------------------|
|-------------------------------------------3------1-----------------1------0----------------------|
|--------------------------------------------------------------------------------------------------|
|
|----------------------------------------------------------------------8---------8-------8---------|
|---------------------------------------------6h8p6-------8b-----------------8b----------8b------r-|
|----------------------------5h-7--7--------7------------------------------------------------------|
|--------------------3--5--7-----------------------------------------------------------------------|
|--5-----------3--5--------------------------------------------------------------------------------|
|--------------------------------------------------------------------------------------------------|

only 1st guitar now:
|-----------1-----------------------1--------------------------------------------------------------|
|--------x--------3--------------x--------3-----------------3-----------------------3-----2--------|
|-----x----------------x------x-----------------x--------x--------3-----x--------x--------------x--|
|--x-----------------x-----x--------------------------x-----------------------x--------------------|
|-------------------------------------------x------x-----------------x------x----------------------|
|--------------------------------------------------------------------------------------------------|

|-----------1-----------------------1--------------------------------------------------------------|
|--------x--------3--------------x--------3-----------------3-----------------------3-----2--------|
|-----x----------------x------x-----------------x--------x--------3-----x--------x--------------x--|
|--x-----------------x-----x--------------------------x-----------------------x--------------------|
|-------------------------------------------x------x-----------------x------x----------------------|
|--------------------------------------------------------------------------------------------------|

only 2nd guitar now:
|--------------------------------------------1--1--1--1--1--1--1--1--1--1--1--1--1--1--1-|
|--3--3--3--3--3--3--3--3--3--3--3--3--3--3--3--3--3--3--3--3--3--3--3--3--3--3--3--3--3-|
|--3--3--3--3--3--3--3--3--3--3--3--3--3--3--2--2--2--2--2--2--2--2--2--2--2--2--2--2--2-|
|--3--3--3--3--3--3--3--3--3--3--3--3--3--3--0--0--0--0--0--0--0--0--0--0--0--0--0--0--0-|
|--1--1--1--1--1--1--1--1--1--1--1--1--1--1----------------------------------------------|
|----------------------------------------------------------------------------------------|

|--------------------------------------------1--1--1--1--1--1--1--1--1--1--1--1--1--1--1-|
|--3--3--3--3--3--3--3--3--3--3--3--3--3--3--3--3--3--3--3--3--3--3--3--3--3--3--3--3--3-|
|--3--3--3--3--3--3--3--3--3--3--3--3--3--3--2--2--2--2--2--2--2--2--2--2--2--2--2--2--2-|
|--3--3--3--3--3--3--3--3--3--3--3--3--3--3--0--0--0--0--0--0--0--0--0--0--0--0--0--0--0-|
|--1--1--1--1--1--1--1--1--1--1--1--1--1--1----------------------------------------------|
|----------------------------------------------------------------------------------------|

|----------------------------------------------------------------------------------------|
|-----5----5----5--5--5--9----9--9--9--9--9----3--3--3--3--3--3--3--3--3--3--3--3--3--3--|
|-----5----5----5--5--5--9----9--9--9--9--9----3--3--3--3--3--3--3--3--3--3--3--3--3--3--|
|-----5----5----5--5--5--9----9--9--9--9--9----3--3--3--3--3--3--3--3--3--3--3--3--3--3--|
|-----3----3----3--3--3--7----7--7--7--7--7----1--1--1--1--1--1--1--1--1--1--1--1--1--1--|
|----------------------------------------------------------------------------------------|

1st guitar:
|--------------------------------------------------5---------------8--5-------------------------5--|
|--------------------------------------------6h8p6-------------------------------------------------|
|--7b-----------------r-------------------7--------------------------------------------------------|
|--------------------------------------------------------------------------------------------------|
|--------------------------------------------------------------------------------------------------|
|--------------------------------------------------------------------------------------------------|
|2nd guitar:
|--1----1----1--1--1-------------------------------1----1----1--1--1-------------------------------|
|--3----3----3--3--3--3----3--3--3--3--3--3--3--3--3----3----3--3--3--3----3--3--3--3--3--3--3--3--|
|--2----2----2--2--2--3----3--3--3--3--3--3--3--3--2----2----2--2--2--3----3--3--3--3--3--3--3--3--|
|--0----0----0--0--0--3----3--3--3--3--3--3--3--3--0----0----0--0--0--3----3--3--3--3--3--3--3--3--|
|---------------------1----1--1--1--1--1--1--1--1---------------------1----1--1--1--1--1--1--1--1--|
|--------------------------------------------------------------------------------------------------|

this part is tabbed a bit slower... 2nd guitar plays the riff as fast as the lines above.
|--10-----10-----10-10--10--10----10--------------------------------------------------------|
|--------------------------------------13--11--10-------------------------------------------|
|--------------------------------------------------12p10h12p10h12-12b----12b----12b-12--10--|
|-------------------------------------------------------------------------------------------|
|-------------------------------------------------------------------------------------------|
|-------------------------------------------------------------------------------------------|
|
|--1------1------1---1---1-----------------------------------------------------------------|
|--3------3------3---3---3--3------3---3---3---3---3---3---3---3---------------------------|
|--2------2------2---2---2--3------3---3---3---3---3---3---3---3--3------3------3---3---3--|
|--0------0------0---0---0--3------3---3---3---3---3---3---3---3--3------3------3---3---3--|
|---------------------------1------1---1---1---1---1---1---1---1--3------3------3---3---3--|
|-----------------------------------------------------------------1------1------1---1---1--|

|----------------------------------------------------------------------------------------------|
|-10------10--10-------------------------------------------------------------------------------|
|-----------------12p10p9h-10h-12p-10p9--------------------------------------------------------|
|----------------------------------------12---12h14h15p14-12h14h15p14-12h14h15p14-12h14h15p14--|
|----------------------------------------------------------------------------------------------|
|----------------------------------------------------------------------------------------------|
|
|----------------------------------------1------1------1---1---1--------------------|
|--2------2---2---2---2---2---2---2---2--3------3------3---3---3--3------3---3---3--|
|--2------2---2---2---2---2---2---2---2--2------2------2---2---2--3------3---3---3--|
|--2------2---2---2---2---2---2---2---2--0------0------0---0---0--3------3---3---3--|
|--0------0---0---0---0---0---0---0---0---------------------------1------1---1---1--|
|-----------------------------------------------------------------------------------|

|---------------------------------------------------------------------------------------|
|--------------------------------------------------------10-----10--10--10--13------10--|
|--12b----12b--12b--12rp10-----13b----13b----13b-12--10---------------------------------|
|---------------------------------------------------------------------------------------|
|---------------------------------------------------------------------------------------|
|---------------------------------------------------------------------------------------|
|
|---------------------------------------------------------------------------------------|
|---3-----3----3------3----------------------------------2------2---2---2---2---2---2---|
|---3-----3----3------3--------3------3------3---3---3---2------2---2---2---2---2---2---|
|---3-----3----3------3--------3------3------3---3---3---2------2---2---2---2---2---2---|
|---1-----1----1------1--------3------3------3---3---3---0------0---0---0---0---0---0---|
|------------------------------1------1------1---1---1----------------------------------|

|---10--10--10--10--10------------------------------------------------------|
|----------------------------13---------------------------------------------|
|---------------------------------12p10h12--12b---12b-r12---10--------------|
|---------------------------------------------------------------------------|
|---------------------------------------------------------------------------|
|---------------------------------------------------------------------------|
|
|---1----1----1---1----1----------------------------------------------------|
|---3----3----3---3----3-----------5---------3----3----3----3----3----------|
|---2----2----2---2----2-----------5---------3----3----3----3----3----------|
|---0----0----0---0----0-----------5---------3----3----3----3----3----------|
|----------------------------------3---------1----1----1----1----1----------|
|---------------------------------------------------------------------------|

|--------------------------------------------------------|
|--------------------------------------------------------|
|12b---------12b-------12b-12b-12b---------12b-----------|
|--------------------------------------------------------|
|--------------------------------------------------------|
|--------------------------------------------------------|
|
|------------1----1----1---1----1------------------------|
|-5----------3----3----3---3----3-----------5------------|
|-5----------2----2----2---2----2-----------5------------|
|-5----------0----0----0---0----0-----------5------------|
|-3-----------------------------------------3------------|
|--------------------------------------------------------|

|----------------------------------------------------------------------|
|----------------------------------------------------------------------|
|--12p-10p-9--12p-10p-9--12p-10p-9h-10---12b-------12b--12b---r--12b---|
|----------------------------------------------------------------------|
|----------------------------------------------------------------------|
|----------------------------------------------------------------------|
|
|-----------------------------------------1----1----1----1----1--------|
|--3----3----3----3----3----------5-------3----3----3----3----3--------|
|--3----3----3----3----3----------5-------2----2----2----2----2--------|
|--3----3----3----3----3----------5-------0----0----0----0----0--------|
|--1----1----1----1----1----------3------------------------------------|
|----------------------------------------------------------------------|

|-------------------------------------------------|
|-------------------------------------------------|
|-(14)--------r--10h12p10--------10---------9h10p9|
|-------------------------------------------------|
|-------------------------------------------------|
|-------------------------------------------------|
|
|-------------------------------------------------|
|---5---------3----3----3----3----3-----------5---|
|---5---------3----3----3----3----3-----------5---|
|---5---------3----3----3----3----3-----------5---|
|---3---------1----1----1----1----1-----------3---|
|-------------------------------------------------|

|------------------------------------------------------------------|
|------------------------------------------------------------------|
|----------------------------------10h-12p-10----12b--12b----------|
|--12-----10p-8h-10----12------------------------------------------|
|------------------------------------------------------------------|
|------------------------------------------------------------------|
|
|---1----1----1----1----1------------------------------------------|
|---3----3----3----3----3----------5---------3----3----3----3----3-|
|---2----2----2----2----2----------5---------3----3----3----3----3-|
|---0----0----0----0----0----------5---------3----3----3----3----3-|
|----------------------------------3---------1----1----1----1----1-|
|------------------------------------------------------------------|


|--12b----12b-----12b-12--10--8------8--8--10-10-10-10-10p8---|
|-------------------------------------------------------------|
|-------------------------------------------------------------|
|-------------------------------------------------------------|
|-------------------------------------------------------------|
|-------------------------------------------------------------|
|
|-------------------------------------------------------------|
|-----------------------------5------5--5--5--5--5--5--5--3---|
|---3------3------3---3---3---5------5--5--5--5--5--5--5--3---|
|---3------3------3---3---3---5------5--5--5--5--5--5--5--3---|
|---3------3------3---3---3---3------3--3--3--3--3--3--3--1---|
|---1------1------1---1---1-----------------------------------|

|----------------------------------------------------8--8--|
|-11-----------11--------11--11-----11--11--11--11---------|
|----------------------------------------------------------|
|----------------------------------------------------------|
|----------------------------------------------------------|
|----------------------------------------------------------|
|
|----------------------------------------------------------|
|-3--3--3--3--3--3--3--3--3--3--3--3--3--3--3--3--3--3--3--|
|-3--3--3--3--3--3--3--3--3--3--3--3--3--3--3--3--3--3--3--|
|-3--3--3--3--3--3--3--3--3--3--3--3--3--3--3--3--3--3--3--|
|-1--1--1--1--1--1--1--1--1--1--1--1--1--1--1--1--1--1--1--|
|----------------------------------------------------------|

|------------------------------------------------------------|
|------------------------------------------------------------|
|--9--10--10------10--9---7------------------7--7--7--7------|
|-----------------------------10----10----10-------------8---|
|------------------------------------------------------------|
|------------------------------------------------------------|
|
|------------------------------------------------------------|
|-----------------------------5-----5--5--5--5--5--5--5--3---|
|---3------3------3---3---3---5-----5--5--5--5--5--5--5--3---|
|---3------3------3---3---3---5-----5--5--5--5--5--5--5--3---|
|---3------3------3---3---3---3-----3--3--3--3--3--3--3--1---|
|---1------1------1---1---1----------------------------------|

|----------------------------------------------------------|
|----------------------------------------------------------|
|----------------------------------------------------------|
|-8-----------------------8--------------------------8--8--|
|----------------------------------------------------------|
|----------------------------------------------------------|
|
|----------------------------------------------------------|
|-3--3--3--3--3--3--3--3--3--3--3--3--3--3--3--3--3--3--3--|
|-3--3--3--3--3--3--3--3--3--3--3--3--3--3--3--3--3--3--3--|
|-3--3--3--3--3--3--3--3--3--3--3--3--3--3--3--3--3--3--3--|
|-1--1--1--1--1--1--1--1--1--1--1--1--1--1--1--1--1--1--1--|
|----------------------------------------------------------|

|--------------------------------------------------------------------------------------|
|--------------------------------------------------------------------------------------|
|----------------------------------10--12b--12b--------12b--r----10----------10--------|
|------------------------10---12-------------------------------------------------------|
|-------------10h12h13-----------------------------------------------------------------|
|--10----------------------------------------------------------------------------------|
|
|---1----1----1---1----1---------------------------------------------------------------|
|---3----3----3---3----3-----------5---------3----3----3----3----3-----------5---------|
|---2----2----2---2----2-----------5---------3----3----3----3----3-----------5---------|
|---0----0----0---0----0-----------5---------3----3----3----3----3-----------5---------|
|----------------------------------3---------1----1----1----1----1-----------3---------|
|--------------------------------------------------------------------------------------|

|-10------------------------------------------|
|---------------------------------------------|
|------12p10--------10---------------10-------|
|--------------12----------------12-----------|
|---------------------------------------------|
|---------------------------------------------|
|
|-1----1----1---1----1------------------------|
|-3----3----3---3----3-----------5------------|
|-2----2----2---2----2-----------5------------|
|-0----0----0---0----0-----------5------------|
|--------------------------------3------------|
|---------------------------------------------|

|------------------------------------------------10-----------------10---------|
|------------------------------------------------------------------------------|
|-----12b------------12b--12b---------12b-------------12---10------------------|
|---------------------------------------------------------------------------12-|
|------------------------------------------------------------------------------|
|------------------------------------------------------------------------------|
|
|------------------------------------------------1----1----1---1----1----------|
|-----3----3----3----3----3-----------5----------3----3----3---3----3----------|
|-----3----3----3----3----3-----------5----------2----2----2---2----2----------|
|-----3----3----3----3----3-----------5----------0----0----0---0----0----------|
|-----1----1----1----1----1-----------3----------------------------------------|
|------------------------------------------------------------------------------|

|-----------------------------------------------------------|
|-----------------------------------------------------------|
|-10---------10h12-----10---12b-------r------p10--------12b-|
|-----------------------------------------------------------|
|-----------------------------------------------------------|
|-----------------------------------------------------------|
|
|--------------------------------------------------------1--|
|-5----------3----3----3----3----3-----------5-----------3--|
|-5----------3----3----3----3----3-----------5-----------2--|
|-5----------3----3----3----3----3-----------5-----------0--|
|-3----------1----1----1----1----1-----------3--------------|
|-----------------------------------------------------------|

listen to the song to know how strong you have to bend.
while the solo you can do hammer on and pull off although i didn't tab it. if 1st and 
guitar play together, the lines are connected wiht |.

h: hammer on
p: pull off
b: bend
r: release
x: muted note
comments
We did not receive enough feedback on this tab! Please rate:
print report bad tab
1 2 3 4 5
I want to post or [tab]
guest
You may want to rate the tab now too:
select rating
Please do not post tabs as comments. Select "correction" instead!