Oops, an error
Loading. Please wait.

Sonic Reducer Tab

ver4
ver4

Solo

Whole song

Interactive

More versions @911Tabs.com
9,156 views 18 this week
1 commentread comment
1 2 3 4 5
excellent!
x 6
Autoscroll
+/-
esc
set tempo
stop
Contributor
Hey! There's an official Ultimate Guitar app which is ideal
for learning songs when you're away from computer. Get the app
WARNING: You are trying to view
                                    content from Ultimate-Guitar.com
                                    in an unauthorized application,
                                    which is prohibited.

                                    Please use an official Ultimate
                                    Guitar Tabs application for iPhone,
                                    iPad or Android to access legitimate
                                    chords, guitar, bass, and drum tabs
                                    from Ultimate-Guitar.com database.

                                    Type "ultimate guitar tabs" in Apple
                                    App Store's or Android Market's
                                    search to find the application.
Dead Boys - Sonic Reducer

tuning: standard

|--------------------|
|--------------------|
|--8--6~-------------|
|--8--6~-------------|
|--6--4~-------------|
|--------------------|

|-----|
|-----|
|--~--|
|--~--|
|--~--|
|-----|
|[pm____________________________________________________________________________________________pm]
|--------------------------------------------------------------------------------------------------|
|--------------------------------------------------------------------------------------------------|
|--------------------------------------------------------------------------------------------------|
|--------------------------------------------------------------------------------------------------|
|--4--4--4--4--4--4--4--4--------------------------------------------------------------------------|
|--------------------------4--4--4--4--4--4--4--4--5--5--5--5--5--5--5--0--2--2--2--2--2--2--2--2--|

|[pm____________________________________________________________________________________________pm]
|--------------------------------------------------------------------------------------------------|
|--------------------------------------------------------------------------------------------------|
|--------------------------------------------------------------------------------------------------|
|--------------------------------------------------------------------------------------------------|
|--4--4--4--4--4--4--4--4--------------------------------------------------------------------------|
|--------------------------4--4--4--4--4--4--4--4--5--5--5--5--5--5--5--0--2--2--2--2--2--2--2--2--|

|--------------------------------------------------------------------------------------------------|
|--------------------------------------------------------------------------------------------------|
|--6-----------6-----6-----------------------------------------------6--6b-6b-6b-6b-6b-6b-r--------|
|--6-----------6-----6-----6-----------6-----6-----7-----------7-----------------------------------|
|--4-----------4-----4-----6-----------6-----6-----7-----------7-----------------------------------|
|--------------------------4-----------4-----4-----5-----------5-----------------------------------|
|
|--------------------------------------------------------------------------------------------------|
|--------------------------------------------------------------------------------------------------|
|--6-----------6-----6-----------------------------------------------------------------------------|
|--6-----------6-----6-----6-----------6-----6-----7-----------7-----7-----4--4--4--4--4--4--4--4--|
|--4-----------4-----4-----6-----------6-----6-----7-----------7-----7-----4--4--4--4--4--4--4--4--|
|--------------------------4-----------4-----4-----5-----------5-----5-----2--2--2--2--2--2--2--2--|


|--------------------------------------------------------------------------------------------------|
|-------------------------------------------------------------------/7--9--9--7--9-----7--9p-7-----|
|--6-----------6-----6-----------------------------------------------------------------------------|
|--6-----------6-----6-----6-----------6-----6-----7-----------7-----------------------------------|
|--4-----------4-----4-----6-----------6-----6-----7-----------7-----------------------------------|
|--------------------------4-----------4-----4-----5-----------5-----------------------------------|
|
|--------------------------------------------------------------------------------------------------|
|--------------------------------------------------------------------------------------------------|
|--6-----------6-----6-----------------------------------------------------------------------------|
|--6-----------6-----6-----6-----------6-----6-----7-----------7-----7-----4--4--4--4--4--4--4--4--|
|--4-----------4-----4-----6-----------6-----6-----7-----------7-----7-----4--4--4--4--4--4--4--4--|
|--------------------------4-----------4-----4-----5-----------5-----5-----2--2--2--2--2--2--2--2--|

 [pm____________________________________________________________________________________________pm]
|--------------------------------------------------------------------------------------------------|
|--------------------------------------------------------------------------------------------------|
|--6--6--6--6--6--6--6--6--------------------------------------------------------------------------|
|--6--6--6--6--6--6--6--6--6--6--6--6--6--6--6--6--7--7--7--7--7--7--7--7--4--4--4--4--4--4--4--4--|
|--4--4--4--4--4--4--4--4--6--6--6--6--6--6--6--6--7--7--7--7--7--7--7--7--4--4--4--4--4--4--4--4--|
|--------------------------4--4--4--4--4--4--4--4--5--5--5--5--5--5--5--5--2--2--2--2--2--2--2--2--|
2x

|--------------------------------------------------------------------------------------------------|
|--------------------------------------------------------------------------------------------------|
|--6-----------6-----6-----------------------------------------------------------------------------|
|--6-----------6-----6-----6-----------6-----6-----7-----------7-----7-----4--4--4--4--4--4--4--4--|
|--4-----------4-----4-----6-----------6-----6-----7-----------7-----7-----4--4--4--4--4--4--4--4--|
|--------------------------4-----------4-----4-----5-----------5-----5-----2--2--2--2--2--2--2--2--|
|
|[pm____________________________________________________________________________________________pm]
|--------------------------------------------------------------------------------------------------|
|--------------------------------------------------------------------------------------------------|
|--6--6--6--6--6--6--6--6--------------------------------------------------------------------------|
|--6--6--6--6--6--6--6--6--6--6--6--6--6--6--6--6--7--7--7--7--7--7--7--7--4--4--4--4--4--4--4--4--|
|--4--4--4--4--4--4--4--4--6--6--6--6--6--6--6--6--7--7--7--7--7--7--7--7--4--4--4--4--4--4--4--4--|
|--------------------------4--4--4--4--4--4--4--4--5--5--5--5--5--5--5--5--2--2--2--2--2--2--2--2--|

|--------------------------------------------------------------------------------------------------|
|--------------------------------------------------------------------------------------------------|
|--------------------------------------------------2-----------------------4-----------------------|
|--2-----------------------4-----------------------2-----------------------4-----------------------|
|--2-----------------------4-----------------------0-----------------------2-----------------------|
|--0-----------------------2-----------------------------------------------------------------------|
|
|--------------------------------------------------------------------------------------------------|
|--------------------------------------------------------------------------------------------------|
|--------------------------------------------------2-----------2-----2-----4-----------4-----4-----|
|--2-----------2-----2-----4-----------4-----4-----2-----------2-----2-----4-----------4-----4-----|
|--2-----------2-----2-----4-----------4-----4-----0-----------0-----0-----2-----------2-----2-----|
|--0-----------0-----0-----2-----------2-----2-----------------------------------------------------|

|--------------------------------------------------------------------------------------------------|
|--------------------------------------------------------------------------------------------------|
|--4--------6--------------4--------6-----------4--2-----------------------4-----------------------|
|--4--------6--------------4--------6-----------4--2-----------------------4-----------------------|
|--2--------4--------------2--------4-----------2--0-----------------------2-----------------------|
|--------------------------------------------------------------------------------------------------|
2x
|
|--------------------------------------------------------------------------------------------------|
|--------------------------------------------------------------------------------------------------|
|--4-----x--6-----6--6--6--4-----x--6-----6--6--4--2-----2--2--------------4--4--4--4--4--4--4--4--|
|--4-----x--6-----6--6--6--4-----x--6-----6--6--4--2-----2--2--------------4--4--4--4--4--4--4--4--|
|--2-----x--4-----4--4--4--2-----x--4-----4--4--2--0-----0--0--------------2--2--2--2--2--2--2--2--|
|--------------------------------------------------------------------------------------------------|
2x

 [pm_____________________________________________________________pm]
|--------------------------------------------------------------------------------------------------|
|--------------------------------------------------------------------------------------------------|
|--6--6--6--6--6--6--6--6--------------------------------------------6--6b-6b-6b-6b-6b-6b-r--------|
|--6--6--6--6--6--6--6--6--6--6--6--6--6--6--6--6--7--7--7--7--7--7--------------------------------|
|--4--4--4--4--4--4--4--4--6--6--6--6--6--6--6--6--7--7--7--7--7--7--------------------------------|
|--------------------------4--4--4--4--4--4--4--4--5--5--5--5--5--5--------------------------------|
|
|[pm____________________________________________________________________________________________pm]
|--------------------------------------------------------------------------------------------------|
|--------------------------------------------------------------------------------------------------|
|--6--6--6--6--6--6--6--6--------------------------------------------------------------------------|
|--6--6--6--6--6--6--6--6--6--6--6--6--6--6--6--6--7--7--7--7--7--7--7--7--4--4--4--4--4--4--4--4--|
|--4--4--4--4--4--4--4--4--6--6--6--6--6--6--6--6--7--7--7--7--7--7--7--7--4--4--4--4--4--4--4--4--|
|--------------------------4--4--4--4--4--4--4--4--5--5--5--5--5--5--5--5--2--2--2--2--2--2--2--2--|

 [pm_____________________________________________________________pm]
|--------------------------------------------------------------------------------------------------|
|-------------------------------------------------------------------/7--9--9--7--9-----7--9p-7-----|
|--6--6--6--6--6--6--6--6--------------------------------------------------------------------------|
|--6--6--6--6--6--6--6--6--6--6--6--6--6--6--6--6--7--7--7--7--7--7--------------------------------|
|--4--4--4--4--4--4--4--4--6--6--6--6--6--6--6--6--7--7--7--7--7--7--------------------------------|
|--------------------------4--4--4--4--4--4--4--4--5--5--5--5--5--5--------------------------------|
|
|[pm____________________________________________________________________________________________pm]
|--------------------------------------------------------------------------------------------------|
|--------------------------------------------------------------------------------------------------|
|--6--6--6--6--6--6--6--6--------------------------------------------------------------------------|
|--6--6--6--6--6--6--6--6--6--6--6--6--6--6--6--6--7--7--7--7--7--7--7--7--4--4--4--4--4--4--4--4--|
|--4--4--4--4--4--4--4--4--6--6--6--6--6--6--6--6--7--7--7--7--7--7--7--7--4--4--4--4--4--4--4--4--|
|--------------------------4--4--4--4--4--4--4--4--5--5--5--5--5--5--5--5--2--2--2--2--2--2--2--2--|

 [pm____________________________________________________________________________________________pm]
|--------------------------------------------------------------------------------------------------|
|--------------------------------------------------------------------------------------------------|
|--6--6--6--6--6--6--6--6--------------------------------------------------------------------------|
|--6--6--6--6--6--6--6--6--6--6--6--6--6--6--6--6--7--7--7--7--7--7--7--7--4--4--4--4--4--4--4--4--|
|--4--4--4--4--4--4--4--4--6--6--6--6--6--6--6--6--7--7--7--7--7--7--7--7--4--4--4--4--4--4--4--4--|
|--------------------------4--4--4--4--4--4--4--4--5--5--5--5--5--5--5--5--2--2--2--2--2--2--2--2--|
2x
|
|[pm____________________________________________________________________________________________pm]
|--------------------------------------------------------------------------------------------------|
|--------------------------------------------------------------------------------------------------|
|--6--6--6--6--6--6--6--6--------------------------------------------------------------------------|
|--6--6--6--6--6--6--6--6--6--6--6--6--6--6--6--6--7--7--7--7--7--7--7--7--4--4--4--4--4--4--4--4--|
|--4--4--4--4--4--4--4--4--6--6--6--6--6--6--6--6--7--7--7--7--7--7--7--7--4--4--4--4--4--4--4--4--|
|--------------------------4--4--4--4--4--4--4--4--5--5--5--5--5--5--5--5--2--2--2--2--2--2--2--2--|
2x

|--------------------------------------------------------------------------------------------------|
|--------------------------------------------------------------------------------------------------|
|--6-----------6-----6-----------------------------------------------------------------------------|
|--6-----------6-----6-----6-----------6-----6-----7-----------7-----7-----4--4--4--4--4--4--4--4--|
|--4-----------4-----4-----6-----------6-----6-----7-----------7-----7-----4--4--4--4--4--4--4--4--|
|--------------------------4-----------4-----4-----5-----------5-----5-----2--2--2--2--2--2--2--2--|
|
|[pm____________________________________________________________________________________________pm]
|--------------------------------------------------------------------------------------------------|
|--------------------------------------------------------------------------------------------------|
|--6--6--6--6--6--6--6--6--------------------------------------------------------------------------|
|--6--6--6--6--6--6--6--6--6--6--6--6--6--6--6--6--7--7--7--7--7--7--7--7--4--4--4--4--4--4--4--4--|
|--4--4--4--4--4--4--4--4--6--6--6--6--6--6--6--6--7--7--7--7--7--7--7--7--4--4--4--4--4--4--4--4--|
|--------------------------4--4--4--4--4--4--4--4--5--5--5--5--5--5--5--5--2--2--2--2--2--2--2--2--|

|--------------------------------------------------------------------------------------------------|
|--------------------------------------------------------------------------------------------------|
|--------------------------------------------------2-----------------------4-----------------------|
|--2-----------------------4-----------------------2-----------------------4-----------------------|
|--2-----------------------4-----------------------0-----------------------2-----------------------|
|--0-----------------------2-----------------------------------------------------------------------|
|
|--------------------------------------------------------------------------------------------------|
|--------------------------------------------------------------------------------------------------|
|--------------------------------------------------2-----------2-----2-----4-----------4-----4-----|
|--2-----------2-----2-----4-----------4-----4-----2-----------2-----2-----4-----------4-----4-----|
|--2-----------2-----2-----4-----------4-----4-----0-----------0-----0-----2-----------2-----2-----|
|--0-----------0-----0-----2-----------2-----2-----------------------------------------------------|

|--------------------------------------------------------------------------------------------------|
|--------------------------------------------------------------------------------------------------|
|--4--------6--------------4--------6-----------4--2-----------------------4-----------------------|
|--4--------6--------------4--------6-----------4--2-----------------------4-----------------------|
|--2--------4--------------2--------4-----------2--0-----------------------2-----------------------|
|--------------------------------------------------------------------------------------------------|
2x
|
|--------------------------------------------------------------------------------------------------|
|--------------------------------------------------------------------------------------------------|
|--4-----x--6-----6--6--6--4-----x--6-----6--6--4--2-----2--2--------------4--4--4--4--4--4--4--4--|
|--4-----x--6-----6--6--6--4-----x--6-----6--6--4--2-----2--2--------------4--4--4--4--4--4--4--4--|
|--2-----x--4-----4--4--4--2-----x--4-----4--4--2--0-----0--0--------------2--2--2--2--2--2--2--2--|
|--------------------------------------------------------------------------------------------------|
2x
ok, this is were the solo starts

|--------------------------------------------------------------------------------------------------|
|--9---7h9--9---7h97h97h9--9----7h9-9-----9--9--9--12-9--------------------------------------------|
|-------------------------------------------------------11-9---9-----9--11-11b---11b---11br--9-----|
|-----------------------------------------------------------11----11----------------------------11-|
|--------------------------------------------------------------------------------------------------|
|--------------------------------------------------------------------------------------------------|
|
|[pm____________________________________________________________________________________________pm]
|--------------------------------------------------------------------------------------------------|
|--------------------------------------------------------------------------------------------------|
|--6--6--6--6--6--6--6--6--------------------------------------------------------------------------|
|--6--6--6--6--6--6--6--6--6--6--6--6--6--6--6--6--7--7--7--7--7--7--7--7--4--4--4--4--4--4--4--4--|
|--4--4--4--4--4--4--4--4--6--6--6--6--6--6--6--6--7--7--7--7--7--7--7--7--4--4--4--4--4--4--4--4--|
|--------------------------4--4--4--4--4--4--4--4--5--5--5--5--5--5--5--5--2--2--2--2--2--2--2--2--|

|--------------------------------------------------------------------------------------------------|
|--------------------------------------------------------------------------------------------------|
|--9--------9--------9-----9--------9--------9-----9--11-9--11-9--11-9--11-11br--9-----9-----11-11-|
|--------11-------11----11-------11-------11----11----------------------------------11-------------|
|--------------------------------------------------------------------------------------------------|
|--------------------------------------------------------------------------------------------------|
|
|[pm____________________________________________________________________________________________pm]
|--------------------------------------------------------------------------------------------------|
|--------------------------------------------------------------------------------------------------|
|--6--6--6--6--6--6--6--6--------------------------------------------------------------------------|
|--6--6--6--6--6--6--6--6--6--6--6--6--6--6--6--6--7--7--7--7--7--7--7--7--4--4--4--4--4--4--4--4--|
|--4--4--4--4--4--4--4--4--6--6--6--6--6--6--6--6--7--7--7--7--7--7--7--7--4--4--4--4--4--4--4--4--|
|--------------------------4--4--4--4--4--4--4--4--5--5--5--5--5--5--5--5--2--2--2--2--2--2--2--2--|

|--------------------------------------------------------------------------------------------------|
|-/12-12-12-12-12-12-12-12-12h14-14-14-14-14-16-16-16-16-16-16-16-16-16-16-17-17-17-17-17-17-17-17-|
|--------------------------------------------------------------------------------------------------|
|--------------------------------------------------------------------------------------------------|
|--------------------------------------------------------------------------------------------------|
|--------------------------------------------------------------------------------------------------|
|
|[pm____________________________________________________________________________________________pm]
|--------------------------------------------------------------------------------------------------|
|--------------------------------------------------------------------------------------------------|
|--6--6--6--6--6--6--6--6--------------------------------------------------------------------------|
|--6--6--6--6--6--6--6--6--6--6--6--6--6--6--6--6--7--7--7--7--7--7--7--7--4--4--4--4--4--4--4--4--|
|--4--4--4--4--4--4--4--4--6--6--6--6--6--6--6--6--7--7--7--7--7--7--7--7--4--4--4--4--4--4--4--4--|
|--------------------------4--4--4--4--4--4--4--4--5--5--5--5--5--5--5--5--2--2--2--2--2--2--2--2--|

|--------------------------------------------------------------------------------------------------|
|-.12----12-12-12-12-12-12-12.---12-12.14-12-12.12.14b---14b---14b---14b---14b---------14b---------|
|-----13----------------------13-------------------------------------------------------------------|
|--------------------------------------------------------------------------------------------------|
|--------------------------------------------------------------------------------------------------|
|--------------------------------------------------------------------------------------------------|
|
|[pm____________________________________________________________________________________________pm]
|--------------------------------------------------------------------------------------------------|
|--------------------------------------------------------------------------------------------------|
|--6--6--6--6--6--6--6--6--------------------------------------------------------------------------|
|--6--6--6--6--6--6--6--6--6--6--6--6--6--6--6--6--7--7--7--7--7--7--7--7--4--4--4--4--4--4--4--4--|
|--4--4--4--4--4--4--4--4--6--6--6--6--6--6--6--6--7--7--7--7--7--7--7--7--4--4--4--4--4--4--4--4--|
|--------------------------4--4--4--4--4--4--4--4--5--5--5--5--5--5--5--5--2--2--2--2--2--2--2--2--|

 [pm____________________________________________________________________________________________pm]
|--------------------------------------------------------------------------------------------------|
|--------------------------------------------------------------------------------------------------|
|--6--6--6--6--6--6--6--6--------------------------------------------------------------------------|
|--6--6--6--6--6--6--6--6--6--6--6--6--6--6--6--6--7--7--7--7--7--7--7--7--4--4--4--4--4--4--4--4--|
|--4--4--4--4--4--4--4--4--6--6--6--6--6--6--6--6--7--7--7--7--7--7--7--7--4--4--4--4--4--4--4--4--|
|--------------------------4--4--4--4--4--4--4--4--5--5--5--5--5--5--5--5--2--2--2--2--2--2--2--2--|
4x

 [pm____________________________________________________________________________________________pm]
|--------------------------------------------------------------------------------------------------|
|--------------------------------------------------------------------------------------------------|
|--6--6--6--6--6--6--6--6--------------------------------------------------------------------------|
|--6--6--6--6--6--6--6--6--6--6--6--6--6--6--6--6--7--7--7--7--7--7--7--7--4--4--4--4--4--4--4--4--|
|--4--4--4--4--4--4--4--4--6--6--6--6--6--6--6--6--7--7--7--7--7--7--7--7--4--4--4--4--4--4--4--4--|
|--------------------------4--4--4--4--4--4--4--4--5--5--5--5--5--5--5--5--2--2--2--2--2--2--2--2--|
|
|[pm____________________________________________________________________________________________pm]
|--------------------------------------------------------------------------------------------------|
|--------------------------------------------------------------------------------------------------|
|--6--6--6--6--6--6--6--6--------------------------------------------------------------------------|
|--6--6--6--6--6--6--6--6--6--6--6--6--6--6--6--6--7--7--7--7--7--7--7--7--4--4--4--4--4--4--4--4--|
|--4--4--4--4--4--4--4--4--6--6--6--6--6--6--6--6--7--7--7--7--7--7--7--7--4--4--4--4--4--4--4--4--|
|--------------------------4--4--4--4--4--4--4--4--5--5--5--5--5--5--5--5--2--2--2--2--2--2--2--2--|

|--------------------------------------------------------------------------------------------------|
|--------------------------------------------------------------------------------------------------|
|--------------------------------------------------2-----------------------4-----------------------|
|--2-----------------------4-----------------------2-----------------------4-----------------------|
|--2-----------------------4-----------------------0-----------------------2-----------------------|
|--0-----------------------2-----------------------------------------------------------------------|
|
|--------------------------------------------------------------------------------------------------|
|--------------------------------------------------------------------------------------------------|
|--------------------------------------------------2-----------2-----2-----4-----------4-----4-----|
|--2-----------2-----2-----4-----------4-----4-----2-----------2-----2-----4-----------4-----4-----|
|--2-----------2-----2-----4-----------4-----4-----0-----------0-----0-----2-----------2-----2-----|
|--0-----------0-----0-----2-----------2-----2-----------------------------------------------------|

|--------------------------------------------------------------------------------------------------|
|--9---7h9--9---7h97h97h9--9----7h9-9-----9--9--9-/12-12-12.12-12-12-12-14-14b---14b---14b---14b---|
|--------------------------------------------------------------------------------------------------|
|-------------------------------------------------------(it's10h12)--------------------------------|
|--------------------------------------------------------------------------------------------------|
|--------------------------------------------------------------------------------------------------|
|
|--------------------------------------------------------------------------------------------------|
|--------------------------------------------------------------------------------------------------|
|--4-----x--6-----6--6--6--4-----x--6-----6--6--4--2-----2--2--------------4--4--4--4--4--4--4--4--|
|--4-----x--6-----6--6--6--4-----x--6-----6--6--4--2-----2--2--------------4--4--4--4--4--4--4--4--|
|--2-----x--4-----4--4--4--2-----x--4-----4--4--2--0-----0--0--------------2--2--2--2--2--2--2--2--|
|--------------------------------------------------------------------------------------------------|

|--------------------------------------------------------------------------------------------------|
|-(12)-.12-12-----12-12-12-14----12-12.14-12-12.12.14,14,14,14,14,14,14,14,14,14,14,14,14,14,12-14-|
|--------------------------------------------------------------------------------------------------|
|--------------------------------------------------------------------------------------------------|
|--------------------------------------------------------------------------------------------------|
|--------------------------------------------------------------------------------------------------|
|
|--------------------------------------------------------------------------------------------------|
|--------------------------------------------------------------------------------------------------|
|--4-----x--6-----6--6--6--4-----x--6-----6--6--4--2-----2--2--------------4--4--4--4--4--4--4--4--|
|--4-----x--6-----6--6--6--4-----x--6-----6--6--4--2-----2--2--------------4--4--4--4--4--4--4--4--|
|--2-----x--4-----4--4--4--2-----x--4-----4--4--2--0-----0--0--------------2--2--2--2--2--2--2--2--|
|--------------------------------------------------------------------------------------------------|

|--19----19-19----21-21-21-21----21-21----21-21-21-------------------------------------------------|
|--------------------------------------------------------------------------14b---14b---14b---14b---|
|--------------------------------------------------18,18-18---p16-18p16----------------------------|
|--------------------------------------------------------------------------------------------------|
|--------------------------------------------------------------------------------------------------|
|--------------------------------------------------------------------------------------------------|
|
|--------------------------------------------------------------------------------------------------|
|--------------------------------------------------------------------------------------------------|
|--4-----x--6-----6--6--6--4-----x--6-----6--6--4--2-----2--2--------------4--4--4--4--4--4--4--4--|
|--4-----x--6-----6--6--6--4-----x--6-----6--6--4--2-----2--2--------------4--4--4--4--4--4--4--4--|
|--2-----x--4-----4--4--4--2-----x--4-----4--4--2--0-----0--0--------------2--2--2--2--2--2--2--2--|
|--------------------------------------------------------------------------------------------------|

the end of the solo sounds wrong, but i'm quite sure it's the way cheetah crome play's it.
|-----------------------------------------------------------------------------------------|
|--------------------------------------------------17---17-17---17p16-14---17-17----16-14-|
|--12b---12b12br--11-11-11-12b---12b12br--11-11-11----------------------------------------|
|-----------------------------------------------------------------------------------------|
|-----------------------------------------------------------------------------------------|
|-----------------------------------------------------------------------------------------|
|
|-----------------------------------------------------------------------------------------|
|-----------------------------------------------------------------------------------------|
|--4-----x--6-----6--6--6--4-----x--6-----6--6--4--2-----2--2--------------4--4--4--4--4--|
|--4-----x--6-----6--6--6--4-----x--6-----6--6--4--2-----2--2--------------4--4--4--4--4--|
|--2-----x--4-----4--4--4--2-----x--4-----4--4--2--0-----0--0--------------2--2--2--2--2--|
|-----------------------------------------------------------------------------------------|

|--------|
|--14~---|
|--------|
|--------|
|--------|
|--------|
|
|--------|
|--------|
|--6~----|
|--6~----|
|--4~----|
|--------|

drums and then again:
|--------|
|--------|
|--6~----|
|--6~----|
|--4~----|
|--------|

cheetah crome plays hammer on and pull off while he's playing the solo very fast so you
hear it... listen to the song and you will hear... these parts are tabbed like this:
each . stands for hammer on or pull off.

i "recorded" (yeah, with my mobile-.-) that song, playing together with my brother... 
it helps you a bit understanding this tab. 
http://profile.ultimate-guitar.com/spuddhel/music/all/play456162

h: hammer on
p: pull off
b: bend
r: release
/: slide up
.: .12 means 10h12, 12. means 12h14
,: 14, means 14p12, 18, means 18p16
pm: palmmute
~: let ring
comments
print report bad tab
1 comment total.
0 reply
Rockin Baller wrote on July 21 2009, 11:41 am

this is a good tab.u just need to identify the guitars cuz it cud get confusing.but other than that its really gd

I want to post or [tab]
guest
You may want to rate the tab now too:
select rating
Please do not post tabs as comments. Select "correction" instead!