Oops, an error
Loading. Please wait.

Carry Me Tab

900 views 1 this week
no commentswrite comment
1 2 3 4 5
excellent!
x 6
Autoscroll
+/-
esc
set tempo
stop
Contributor
Difficulty
Tuning
novice
D G C F A D
WARNING: You are trying to view
                                    content from Ultimate-Guitar.com
                                    in an unauthorized application,
                                    which is prohibited.

                                    Please use an official Ultimate
                                    Guitar Tabs application for iPhone,
                                    iPad or Android to access legitimate
                                    chords, guitar, bass, and drum tabs
                                    from Ultimate-Guitar.com database.

                                    Type "ultimate guitar tabs" in Apple
                                    App Store's or Android Market's
                                    search to find the application.
_______________________________________________
Contact me on my email: Callumfrew97@gmail.com
if you wish to comment on any changes and/or
just message me. Also, add me on my UG account:
callumfrew97.
-------------
_______________
Duration Legend
---------------
W - whole
H - half
Q - quarter
E - 8th
S - 16th
T - 32nd
X - 64th
. - note dotted
|-n-|  - n-tuplets
------------------
________________
Tablature Legend
----------------
L - tied note
x - dead note
g - grace note
(n) - ghost note
> - accentuded note
NH - natural harmonic
AH - artificial harmonic
TH - tapped harmonic
SH - semi harmonic
PH - pitch harmonic
h - hammer on
p - pull off
b - bend
br - bendRelease
pb - preBend
pbr - preBendRelease
brb - bendReleaseBend
\n/ - tremolo bar dip
\n - tremolo bar dive
-/n - tremolo bar Release up
/n\ - tremolo bar inverted dip
/n - tremolo bar return
-\n - tremolo bar Release down
S - shift slide
s - legato slide
/ -  slide into from below or out of upwards
\ -  slide into from above or out of downwards
~ - vibrato
W - wide vibrato
tr - trill
TP - tremolo picking
T - tapping
S - slap
P - pop
< - fade in
^ - brush up
v - brush down
= - let ring
P.M** - palm mute                                                           
-----------------
4/4
VERSE 1
  ====================================
d|-----9-------9---|-----------------|
A|-7-------7-------|-9---10--9---10--|
F|---6---6---6---6-|---6---6---6---6-|
C|-----------------|-----------------|
G|-----------------|-----------------|
D|-----------------|-----------------|

  ====================================
d|-----9-------9---|-----7-----------|
A|-7-------7-------|-10------10--9---|
F|---7---7---7---7-|---9---9---9---9-|
C|-----------------|-----------------|
G|-----------------|-----------------|
D|-----------------|-----------------|

  ====================================
d|-----9-------9---|-----------------|
A|-7-------7-------|-9---10--9---10--|
F|---6---6---6---6-|---6---6---6---6-|
C|-----------------|-----------------|
G|-----------------|-----------------|
D|-----------------|-----------------|

  ====================================
d|-----9-------9---|-----7-----------|
A|-7-------7-------|-10------10--9---|
F|---7---7---7---7-|---9---9---9---9-|
C|-----------------|-----------------|
G|-----------------|-----------------|
D|-----------------|-----------------|

  ====================================
d|-10------10------|-9-------9-------|
A|-----7-------7---|-----7-------7---|
F|---7---7---7---7-|---6---6---6---6-|
C|-----------------|-----------------|
G|-----------------|-----------------|
D|-----------------|-----------------|

  ====================================
d|-----7--------7--|-----7-----------|
A|-10------10------|-9-------9---10--|
F|---9---9----9---9|---9---9---9---9-|
C|-----------------|-----------------|
G|-----------------|-----------------|
D|-----------------|-----------------|

  ====================================
d|-10------10------|-9------9--------|
A|-----7-------7---|----7-------7----|
F|---7---7---7---7-|--6---6---6---6--|
C|-----------------|-----------------|
G|-----------------|-----------------|
D|-----------------|-----------------|

  ====================================
d|-----7-------7---|-----------------|
A|-10------10------|-----------------|
F|---9---9---9---7-|-----------------|
C|-----------------|-----------------|
G|-----------------|--7b-------------|
D|-----------------|--7b-------------|

        P.M*****    3/4
d|-----------------|-----------------|
A|-----------------|-----------------|
F|-----------------|-----------------|
C|-----------------|-----------------|
G|-------7---7-7---|----7\-----------|
D|-------7---7-7---|----7\-----------|

CHORUS
4/4
    ==============    ====================================== 
d|-----------------|-----------------|-----------------|-----------------|
A|-----------------|-----------------|-----------------|-----------------|
F|-----------------|-----------------|-----------------|-----------------|
C|-----------------|-----------------|-----------------|-----------------|
G|--5--------------|--5--------------|-----------------|----9------9-9---|
D|--5--------------|--5--------------|-----------------|----9------9-9---|

    ==============    ======================================
d|-----------------|-----------------|-----------------|-----------------|
A|-----------------|-----------------|-----------------|-----------------|
F|-----------------|-----------------|-----------------|-----------------|
C|-----------------|-----------------|-----------------|-----------------|
G|--12-------------|--12-------------|-----------------|----7------7/9---|
D|--12-------------|--12-------------|-----------------|----7------7/9---|

    ==============    ====================================== 
d|-----------------|-----------------|-----------------|-----------------|
A|-----------------|-----------------|-----------------|-----------------|
F|-----------------|-----------------|-----------------|-----------------|
C|-----------------|-----------------|-----------------|-----------------|
G|--5--------------|--5--------------|-----------------|----9------9-9---|
D|--5--------------|--5--------------|-----------------|----9------9-9---|

    ==============    ======================================
d|-----------------|-----------------|-----------------|-----------------|
A|-----------------|-----------------|-----------------|-----------------|
F|-----------------|-----------------|-----------------|-----------------|
C|-----------------|-----------------|-----------------|-----------------|
G|--12-------------|--12-------------|-----------------|----7------7/9---|
D|--12-------------|--12-------------|-----------------|----7------7/9---|


BREAK
    =======================================================
d|-----------------|-----------------|-----------------|-----------------|
A|-----------------|-----------------|-----------------|-----------------|
F|-----------------|-----------------|-----------------|-----------------|
C|-----------------|-----------------|-----------------|-----------------|
G|--5--------------|-----------------|-----------------|-----------------|
D|--5--------------|-----------------|-----------------|-----------------|

VERSE 2
4/4
   =====================================================================
d|-----9-------9---|-----------------|-----9-------9---|-----7-----------|
A|-7-------7-------|-9---10--9---10--|-7-------7-------|-10------10--9---|
F|---6---6---6---6-|---6---6---6---6-|---7---7---7---7-|---9---9---9---9-|
C|-----------------|-----------------|-----------------|-----------------|
G|-----------------|-----------------|-----------------|-----------------|
D|-----------------|-----------------|-----------------|-----------------|

   ====================================================================
d|-----9-------9---|-----------------|-----9-------9---|-----7-----------|
A|-7-------7-------|-9---10--9---10--|-7-------7-------|-10------10--9---|
F|---6---6---6---6-|---6---6---6---6-|---7---7---7---7-|---9---9---9---9-|
C|-----------------|-----------------|-----------------|-----------------|
G|-----------------|-----------------|-----------------|-----------------|
D|-----------------|-----------------|-----------------|-----------------|

   ====================================================================
d|-10------10------|-9-------9-------|-----7-------7---|-----7-----------|
A|-----7--------7--|-----7-------7---|-10------10------|-9-------9---10--|
F|---7---7----7---7|---6---6---6---6-|---9---9---9---9-|---9---9---9----9|
C|-----------------|-----------------|-----------------|-----------------|
G|-----------------|-----------------|-----------------|-----------------|
D|-----------------|-----------------|-----------------|-----------------|

   =====================================================  ======P.M*****
d|-10------10------|-9-------9-------|-----7-------7---|-----------------|
A|-----7--------7--|-----7-------7---|-10------10------|-----------------|
F|---7---7----7---7|---6---6---6---6-|---9---9---9---9-|-----------------|
C|-----------------|-----------------|-----------------|-----------------|
G|-----------------|-----------------|-----------------|--7------7---7-7-|
D|-----------------|-----------------|-----------------|--7------7---7-7-|

CHORUS
3/4                 4/4
                     =====================================================
d|-----------------|-----------------|-----------------|-----------------|
A|-----------------|-----------------|-----------------|-----------------|
F|-----------------|-----------------|-----------------|-----------------|
C|-----------------|-----------------|-----------------|-----------------|
G|--7\-------------|-5---------------|-----------------|-----------------|
D|--7\-------------|-5---------------|-----------------|-----------------|

 ====    =================================                ================
d|-----------------|-----------------|-----------------|-----------------|
A|-----------------|-----------------|-----------------|-----------------|
F|-----------------|-----------------|-----------------|-----------------|
C|-----------------|-----------------|-----------------|-----------------|
G|-------5---------|-----------------|---9----9-9------|--12-------------|
D|-------5---------|-----------------|---9----9-9------|--12-------------|

 ====    =================================                ================
d|-----------------|-----------------|-----------------|-----------------|
A|-----------------|-----------------|-----------------|-----------------|
F|-----------------|-----------------|-----------------|-----------------|
C|-----------------|-----------------|-----------------|-----------------|
G|-------12--------|-----------------|---7----7/9------|--5--------------|
D|-------12--------|-----------------|---7----7/9------|--5--------------|

 ====    =================================                ================
d|-----------------|-----------------|-----------------|-----------------|
A|-----------------|-----------------|-----------------|-----------------|
F|-----------------|-----------------|-----------------|-----------------|
C|-----------------|-----------------|-----------------|-----------------|
G|-------5---------|-----------------|---9----9-9------|--12-------------|
D|-------5---------|-----------------|---9----9-9------|--12-------------|

 ====    ============== ==================                        ========
d|-----------------|-----------------|-----------------|-----------------|
A|-----------------|-----------------|-----------------|-----------------|
F|-----------------|-----------------|-----------------|--6-------7------|
C|-----------------|---0-------------|-----------------|--6-------7------|
G|-------12--------|-----------------|---9-------------|--4-------5------|
D|-------12--------|-----------------|---9-------------|-----------------|

 ====*******     **  ===== **=====******                          ========
d|-----------------|-----------------|-----------------|-----------------|
A|-----------------|-----------------|-----------------|-----------------|
F|-----------------|-----------------|-----------------|---6-------------|
C|-----------------|-----------------|-----------------|---6-------------|
G|---5-5---5---5-5-|--5---5--5---5-5-|-5----9-----9-9--|---4------12-----|
D|---5-5---5---5-5-|--5---5--5---5-5-|-5----9-----9-9--|----------12-----|

 ====********    **       **       **                              =======
d|-----------------|-----------------|-----------------|-----------------|
A|-----------------|-----------------|-----------------|-----------------|
F|-----------------|-----------------|-----------------|---6-------7-----|
C|-----------------|-----------------|-----------------|---6-------7-----|
G|--12-12---12---12|--12--12--12---12|-12---9-----9-9--|---4-------5-----|
D|--12-12---12---12|--12--12--12---12|-12---9-----9-9--|-----------------|

 ==== *****     **   ===  **==== ****                          ===========
d|-----------------|-----------------|-----------------|-----------------|
A|-----------------|-----------------|-----------------|-----------------|
F|-----------------|-----------------|-----------------|--6--------------|
C|-----------------|-----------------|-----------------|--6--------------|
G|---5--5--5-----5-|--5---5-5----5-5-|--5----9----9-9--|--4----12--------|
D|---5--5--5-----5-|--5---5-5----5-5-|--5----9----9-9--|-------12--------|

 ====*********             **      **
d|-----------------|-----------------|-----------------|-----------------|
A|-----------------|-----------------|-----------------|-----------------|
F|-----------------|-----------------|-----------------|-----------------|
C|-----------------|-----------------|-----------------|-----------------|
G|---12-12---12--12|--12---12--12--12|-----------------|-----------------|
D|---12-12---12--12|--12---12--12--12|-----------------|-----------------|

INTERLUDE


d|-----------------|-----------------|-----------------|-----------------|
A|-----------------|-----------------|-----------------|-----------------|
F|-----------------|-----------------|-----------------|-----------------|
C|-----------------|-----------------|-----------------|-----------------|
G|---12--9-9--9---9|--9-----9--9---9-|-9--12-12-12---12|-12----12-12---12|
D|---12--9-9--9---9|--9-----9--9---9-|-9--12-12-12---12|-12----12-12---12|


d|-----------------|-----------------|-----------------|-----------------|
A|-----------------|-----------------|-----------------|-----------------|
F|-----------------|-----------------|-----------------|-----------------|
C|-----------------|-----------------|-----------------|-----------------|
G|---12--9-9--9---9|--9-----9--9---9-|-9--12-12-12---12|-12----12-12---12|
D|---12--9-9--9---9|--9-----9--9---9-|-9--12-12-12---12|-12----12-12---12|
                     =================== ==================================
                     CHORUS 
d|-----------------||-----------------|-----------------|-----------------|
A|-----------------||-----------------|-----------------|-----------------|
F|-----------------||-----------------|-----------------|-----------------|
C|-----------------||-----------------|-----------------|-----------------|
G|-12--7------7/\9-||-5---------------|----5------------|-----------------|
D|-12--7------7/\9-||-5---------------|----5------------|-----------------


 ====    ==============================              
d|-----------------|-----------------|
A|-----------------|-----------------|
F|-----------------|-----------------|
C|-----------------|-----------------|
G|---9----9-9------|--12-------------|
D|---9----9-9------|--12-------------|

 ====    =================================                
d|-----------------|-----------------|-----------------|
A|-----------------|-----------------|-----------------|
F|-----------------|-----------------|-----------------|
C|-----------------|-----------------|-----------------|
G|-------12--------|-----------------|---7----7/9------|
D|-------12--------|-----------------|---7----7/9------|


d|-----------------|-----------------|-----------------|-----------------|
A|-----------------|-----------------|-----------------|-----------------|
F|-----------------|-----------------|-----------------|-----------------|
C|-----------------|-----------------|-----------------|-----------------|
G|---12--9-9--9---9|--9-----9--9---9-|-9--12-12-12---12|-12----12-12---12|
D|---12--9-9--9---9|--9-----9--9---9-|-9--12-12-12---12|-12----12-12---12|


d|-----------------|-----------------|-----------------|-----------------|
A|-----------------|-----------------|-----------------|-----------------|
F|-----------------|-----------------|-----------------|-----------------|
C|-----------------|-----------------|-----------------|-----------------|
G|---12--9-9--9---9|--9-----9--9---9-|-9--12-12-12---12|-12----12-12---12|
D|---12--9-9--9---9|--9-----9--9---9-|-9--12-12-12---12|-12----12-12---12|

                     ======================================
d|-----------------|-----------------|-----------------|-----------------|
A|-----------------|-----------------|-----------------|-----------------|
F|-----------------|-----------------|-----------------|-----------------|
C|-----------------|-----------------|-----------------|-----------------|
G|--12----7---7/\9-|--5--------------|-----------------|-----------------|
D|--12----7---7/\9-|--5--------------|-----------------|-----------------|

END.
READ TOP AND COMMENT AND RATE 5* AS THIS TOOK A WHILE TO MAKE AND I TRIED
TO MAKE SURE THAT IT WAS AS CLOSE TO 100% ACCURATE A POSSIBLE!:)
comments
print report bad tab
I want to post or [tab]
guest
You may want to rate the tab now too:
select rating
Please do not post tabs as comments. Select "correction" instead!