Oops, an error
Loading. Please wait.

Once Upon A December Tab

111,659 views 273 this week
3 commentsread comments
1 2 3 4 5
excellent!
x 16
Autoscroll
+/-
esc
set tempo
stop
WARNING: You are trying to view
                                    content from Ultimate-Guitar.com
                                    in an unauthorized application,
                                    which is prohibited.

                                    Please use an official Ultimate
                                    Guitar Tabs application for iPhone,
                                    iPad or Android to access legitimate
                                    chords, guitar, bass, and drum tabs
                                    from Ultimate-Guitar.com database.

                                    Type "ultimate guitar tabs" in Apple
                                    App Store's or Android Market's
                                    search to find the application.
Once Upon A December                                        - Deana Carter
====================
Waltz (3/4) time
Intro:
  Am			    E                      C7
e----------5--------5--|R|---------4--------4--|R|---------3--------3-|R|
b-------5--------5-----|E|------5--------5-----|E|------5--------5----|E|
G----------5--------5--|P|---------4--------4--|P|---------3--------3-|P|
D----7-----------------|E|---6-----------------|E|---5----------------|E|
A-------------7--------|A|------------7--------|A|------------3-------|A|
E----------------------|T|---------------------|T|--------------------|T|


   Am      Am/F    Am       E
---------5------5-----------------4---
---------5------5--------5--------5---
------5------5--------4--------4------
---7---------------7--------6---------
-----------8----------------------7---
--------------------------------------
				
					
Am      E      A/C#    Dm		Chords for first section:
Dancing bears  Painted wings		 Am   E  A/C# Dm Dm/F Dm/G B
Dm/F     Am     Dm/F E			--0---0---0----1---1---6---2
Things I almost remember                      --1---0---2----3---3---8---4
Am    E    A/C#    D			--2---1---2----2---2---7---4
And a song someone sings		         --2---2---2----0---3---5---4
Dm/F    Am  E    Am			--0---2---4----------------2
Once upon a December			--x---0---------------------

Dm               Am
Someone holds me safe and warm
Dm                        Am      A
Horses prance through a silver storm
Dm/G            Am
Figures dancing gracefully
B            E
Across my memory
Am   E    A/C# Dm
Far away, long ago
Dm/F    Am       Dm/F E 
Glowing dim as an ember
Am        E     A/C#    D
Things my heart used to know
Dm/F   Am   E    Am
Once upon a December

Pre-Solo and solo (see below)

Dm               Am
Someone holds me safe and warm
Dm                        Am      A
Horses prance through a silver storm
Dm/G            Am
Figures dancing gracefully
B            E
Across my memory


Am#   F    A#/D  D#m			Chords for second section:
Far away,  long  ago			A#m  F  A#/D D#m D#m/F# 
D#m/F#  A#m        D#m/F#  F 		-1---1---1----2---2-  
Glowing dim as  an   ember	           	-2---1---3----4---4-
A#m        F    A#/D     D#m		-3---2---3----3---3-
Things my heart Used to know		-3---3---3----1---4-
D#m/F#  A#m    F    A#m			-1---3---5---------- 
Once    upon a December			-x---1-------------- 

                                       
D#m        A#m               		Chords for final section:
And a song someone sings		D#m A#m  F
D#m   A#m       F  A#m  		-x---6---x-
Once  upon a December		-6---8---8-
				-8---8---7-
===================================	-8---6---5-
Pre-solo:			         -7---6---6-
 Dm                Am      E	-6---6---5-
-----0-1--0^1^0--------------------
---3------------3--1--0----0-------
--2-------------2--2----2------1---
-0-------------------------2---2---
-------------------0---------------
---------------------------0-------


Solo:
--------5-7-7^8^7^5-7---------------------9-12-12/15-15-13-------
-------5--------------9-5-------0------10------------17-15-------
------5------------------------------9---------------------------
-2/7-----------------------------/11-----------------------------
-----------------------------------------------------------------
-----------------------------------------------------------------

----13\---10\---8---7---5---7--7^8^7-5-7-4-----------------------
-------------------------------------------5---------------------
--14----10----9---7---5---7------------------4-4-7---------------
-----------------------------------------------------------------
-----------------------------------------------------------------
-----------------------------------------------------------------

--------5-7-8-/7----/10----/13-----/9------/12------14-----------
------5----------9------12-----15---10-10---14-14---15-----------
--5--------------------------------------------------------------
----7------------------------------------------------------------
-----------------------------------------------------------------
-----------------------------------------------------------------

------14^15-17-13-13--------13-12^13^12--------------------------
----15---------------15-----------------15-13-12-----12\---------
--14--------------------14-----------------------14--13\--13-----
----------------------------------------------------------14-----
-----------------------------------------------------------------
-----------------------------------------------------------------

-----------------------------------------------------------------
--------12-12^13^12----------------------------------------------
--13-14-------------14-12----------------------------------------
--------------------------15-14----------------------------------
-----------------------------------------------------------------
-----------------------------------------------------------------
comments
print report bad tab
3 comments total.
0 reply
Spikez_ wrote on September 11 2005, 12:00 am

wow

0 reply
stuckinafrica wrote on September 25 2008, 08:49 pm

i love this song.
i loved it in the movie too.. : )

0 reply
henza_x wrote on April 11 2009, 05:14 am

I think its an E7 for the "horses dance through a ..."

not a Dm again

I want to post or [tab]
guest
You may want to rate the tab now too:
select rating
Please do not post tabs as comments. Select "correction" instead!