Oops, an error
Loading. Please wait.

I Just Do Tab

2,006 views 1 this week
no commentswrite comment
1 2 3 4 5
worth learning
x 1
Autoscroll
+/-
esc
set tempo
stop
Contributor
Difficulty
novice
Hey! There's an official Ultimate Guitar app which is ideal
for learning songs when you're away from computer. Get the app
WARNING: You are trying to view
                                    content from Ultimate-Guitar.com
                                    in an unauthorized application,
                                    which is prohibited.

                                    Please use an official Ultimate
                                    Guitar Tabs application for iPhone,
                                    iPad or Android to access legitimate
                                    chords, guitar, bass, and drum tabs
                                    from Ultimate-Guitar.com database.

                                    Type "ultimate guitar tabs" in Apple
                                    App Store's or Android Market's
                                    search to find the application.
Hi, hello. This is my first tab so if I screw up, I'm sorry. It's all done by ear, but 
played it alongside the track several times and it sounds accurate, for the most part.

I've seen this tabbed down, but I dont really see the point in that, when you can play 
in standard so long as you use barre chords.
Chords Used:

Ab: 466544
Eb: x68866
Db: x46644

Intro:
e------------------------------------------------------||
B------------------------------------------------------||
G-----5------5-5--------5-----5-5-----5------5-5-----5-||
D------------------------------------------------------||
A------------------------------------------------------|| (then mute an Ab)
E--4-----4--------4------4--------4------4--------4----||

Verse 1:
Ab
Oh so the words have all been said
             Eb
The feeling's old but it's new to me

  I guess I'm scared to death but
Db
Oh I just love you
                 Ab
Oh I just love you

Ab
Telling my friends, "I gotta go"
              Eb
That I need rest
  But I'm running for the phone
    I think Casey knows but
Db
Oh I just love you
                 Ab
Oh I just love you

(For the next part, there's just a simple picking on an Ab barre chord for the first two 
of the bridge)
e--------4---------4--------4-------------4-6----||
B------4---4-----4---4----4---4---------4--------||
G------------------------------------------------||
D---6---------6--------6-----------6-------------||
A------------------------------------------------||
E------------------------------------------------||

A watch now on my wrist, a collared shirt
      Eb
And hair clean cut sculpted
                  Db
I'll iron out the flaws
 Come meet your new in-laws
  Oh here's the awkward pause

Ab
When I look at you,
                     Eb
I've caught myself off-guard a time or two
                        Db
Those funny times I realize that I've been staring
 Way too long and you're done talking
   Not to mention I've stopped breathing
(pause)
I'm such a mess

Ab
I'm rushing to open your car door
             Eb
You lean and open mine before
I can turn the key and
Db
Oh I just love you
                Ab
Oh I just love you

Ab
Calling to say hi on your break
              Eb
In less than twenty words you made
 My whole damn day and
Db
Oh I just love you
                 Ab
Oh I just love you

e--------4---------4--------4-------------4-6----||
B------4---4-----4---4----4---4---------4--------||
G------------------------------------------------||
D---6---------6--------6-----------6-------------||
A------------------------------------------------||
E------------------------------------------------||

In the coffee shop you sipped
                Eb
Your drink and we all sat and talked
                    Db
My mind it wandered off alone
 To find a thought as beauty
  Poured out when you talked
Ab
Stand still in my sight
               Eb
A switch got hit somewhere back in my mind
                   Db
Just then I realized there what I have
 To do, because I couldn't stand to look
   At you across another crowded room
     And know that you would not be mine (hold Db)

Oh time drags its feet
but somehow you sneak it past me
e-----------------------------------||
B-----------------------------------||
G-----5------5-5--------5-----5-5---||
D-----------------------------------||   (<-may not be accurate)
A-----------------------------------||
E--4-----4--------4------4----------||
"Night after night" -^
Db
At this rate if you stay with me
  I'll go to bed at twenty-three
e-----------------------------------||
B-----------------------------------||
G-----5------5-5--------5-----5-5---||
D-----------------------------------||  (<-may not be accurate)
A-----------------------------------||
E--4-----4--------4------4----------||
"And wake up sixty-five" -^
Well next to you
e-----4-----4-4------4----4-4-------||
B-----------------------------------||
G---4----4--------4----4------------||
D-----------------------------------||  (<-may not be accurate)
A-----------------------------------||
E-----------------------------------||
"that would be just fine" -^

That'd be just fine
e-------9---||
B-------9---||
G------10---||
D-----------||  (something along these lines)
A-----------||
E-----------||

Ab
I'm rushing to open your car door
             Eb
You lean and open mine before
Db
Oh I just love you
                Ab
Oh I just love you

Ab
You call to say hi on your break
            Eb
You make my whole damn day
Db
Oh I just love you
                Ab
Oh I just love you

Db
Oh I just love you
                Eb Db Ab
Oh I just love you

Rate and Reviews would be helpful, as I am a beginner. :]
comments
We did not receive enough feedback on this tab! Please rate:
print report bad tab
1 2 3 4 5
I want to post or [tab]
guest
You may want to rate the tab now too:
select rating
Please do not post tabs as comments. Select "correction" instead!