Oops, an error
Loading. Please wait.

Crystal Mountain Tab

ver1
ver1

Solo

Whole song

More versions @911Tabs.com
88,195 views 285 this week
12 commentsread comments
1 2 3 4 5
accurate
x 21
Autoscroll
+/-
esc
set tempo
stop
Contributor
WARNING: You are trying to view
                                    content from Ultimate-Guitar.com
                                    in an unauthorized application,
                                    which is prohibited.

                                    Please use an official Ultimate
                                    Guitar Tabs application for iPhone,
                                    iPad or Android to access legitimate
                                    chords, guitar, bass, and drum tabs
                                    from Ultimate-Guitar.com database.

                                    Type "ultimate guitar tabs" in Apple
                                    App Store's or Android Market's
                                    search to find the application.
#----------------------------------PLEASE NOTE---------------------------------#
#This file is the author's own work and represents their interpretation of the #
#song. You may only use this file for private study, scholarship, or research. #
#------------------------------------------------------------------------------#

                                CRYSTAL MOUNTAIN
                              As recorded by Death
                         (From the 1995 Album SYMBOLIC)

Words by C. Shuldiner

Music by Death
Arranged by Death
Transcribed by SnaacK

Gtr I (D G C F A D) - 'C. Schuldiner'
Gtr II (D G C F A D) - 'Die andere'

 Intro
  death metal Q=190
 4/4
  Gtrs I, II
    PM--|              PM--|              PM--|
|------------------|------------------|------------------|-------------|
|------------------|------------------|------------------|-------------|
|------------------|------------------|------------------|-------------|
|---------9----(9)-|---------8----(8)-|---------9----(9)-|-5--4--------|
|-2-2-2-2-7----(7)-|-2-2-2-2-6----(6)-|-2-2-2-2-7----(7)-|-3--2--3--5--|
|-0-0-0-0----------|-0-0-0-0----------|-0-0-0-0----------|-------1--3--|


  Gtr I
    PM--|              PM--|
|------------------|------------------|
|------------------|------------------|
|------------------|------------------|
|---------9----(9)-|---------8----(8)-|
|-2-2-2-2-7----(7)-|-2-2-2-2-6----(6)-|
|-0-0-0-0----------|-0-0-0-0----------|
|
| Gtr II
|   PM--|              PM--|
|------------------|------------------|
|------------------|------------------|
|------------------|------------------|
|---------9----(9)-|---------8----(8)-|
|-2-2-2-2-7----(7)-|-2-2-2-2-6----(6)-|
|-0-0-0-0----------|-0-0-0-0----------|


|-----------------------|--------------------|
|-----------------------|--------------------|
|-10--9--7--------------|--------------------|
|----------10--9-7-6----|----------6-7--9-10-|
|---------------------8-|-7-5-7--8-----------|
|-----------------------|--------------------|
|
|-----------------------|--------------------|
|-13-12-10--------------|--------------------|
|----------12-11-9-8----|----------8-9-11-12-|
|--------------------10-|-9-7-9-10-----------|
|-----------------------|--------------------|
|-----------------------|--------------------|


   Verse
    Gtrs I, II
      PM--|              PM--|              PM--|
||-------------------|------------------|------------------|--------------||
||o------------------|------------------|------------------|-------------o||
||-------------------|------------------|------------------|--------------||
||----------9----(9)-|---------8----(8)-|---------9----(9)-|-5--4---------||
||o-2-2-2-2-7----(7)-|-2-2-2-2-6----(6)-|-2-2-2-2-7----(7)-|-3--2--3--5--o||
||--0-0-0-0----------|-0-0-0-0----------|-0-0-0-0----------|-------1--3---||


    Gtrs I, II
||------0------|----------|------------|--------------||
||o---------0--|----------|------------|-------------o||
||-------------|-5--------|------------|--------------||
||-------------|----------|------------|--------------||
||o-0----------|----------|---------7--|-----3---5---o||
||-------------|----------|-3---5------|-1------------||


  Gtr I
  PM--|  ~~~~~~~~~~~
|-------------|------------|----------|-----------|
|-------------|------------|----------|-----------|
|-------------|------------|----------|-----------|
|-------------|------------|-6--------|------5----|
|-7-9-10------|------------|-4--------|-6----3----|
|-5-7--8-5----|-(5)--------|-4--------|-4----3----|
|
| Gtr II
|        ~~~~~~~~~~~
|-------------|------------|----------|-----------|
|-------------|------------|----------|-----------|
|-------------|------------|-6--------|------5----|
|-7-9-10------|------------|-4--------|-6----3----|
|-5-7--8-5----|-(5)--------|-4--------|-4----3----|
|-------------|------------|----------|-4---------|


  PM--|  ~~~~~~~~~~~
|-------------|------------|----------|-----------|
|-------------|------------|----------|-----------|
|-------------|------------|----------|-----------|
|-------------|------------|-6--------|------5----|
|-7-9-10------|------------|-4--------|-6----3----|
|-5-7--8-5----|-(5)--------|-4--------|-4----3----|
|
|        ~~~~~~~~~~~
|-------------|------------|----------|-----------|
|-------------|------------|----------|-----------|
|-------------|------------|-6--------|------5----|
|-------------|------------|-4--------|-6----3----|
|-5-7--8------|------------|-4--------|-4----3----|
|-3-5--6-3----|-(3)--------|----------|-4---------|


    Gtrs I, II
||------0------|----------|------------|--------------||
||o---------0--|----------|------------|-------------o||
||-------------|-5--------|------------|--------------||
||-------------|----------|------------|--------------||
||o-0----------|----------|---------7--|-----3---5---o||
||-------------|----------|-3---5------|-1------------||


   Chorus
    Gtr I
||--------------------|-----------------------|
||o-------------------|-----------------------|
||--------------------|-----------------------|
||--------------------|--8--------------------|
||o----------8--------|------------5----------|
||--5-----------------|-----------------------|
|
|   Gtr II
||--------------------|-----------------------|
||o-------------------|-----------10----10-12-|
||---------7-9----7---|----7-9-10----10-------|
||--7-9-10-----10---9-|-10--------------------|
||o-------------------|-----------------------|
||--------------------|-----------------------|


|-----------------------|---------------------|
|-----------------------|---------------------|
|-----------------------|---------------------|
|-------------10--------|---------------------|
|--7--------------------|----------10---------|
|-----------------------|-8-------------------|
|
|-----------------------|---------------------|
|-13-12-10----10--------|---------------------|
|----------10----10-9-7-|-9-10-9-7-------7----|
|-----------------------|-----------9-10---9--|
|-----------------------|---------------------|
|-----------------------|---------------------|


  Gtrs I, II
                                                                             4x
|------------------|------------------|------------------|-------------------||
|------------------|------------------|------------------|------------------o||
|------------------|------------------|------------------|-------------------||
|-10-------9-------|-10-------10---9--|-10-------9-------|-10-------10---9---||
|----0-0-0---0-0-0-|----0-0-0----0----|----0-0-0---0-0-0-|----0-0-0----0----o||
|------------------|------------------|------------------|-------------------||


 Guitar Break
 3/4
  Gtr I
|--------|--------------|---------------|--------|
|--------|--------------|---------------|--------|
|--------|--------------|---------------|--------|
|--------|--------------|---------------|--------|
|-2------|-(2)----------|-(2)-----------|-(2)----|
|-0------|-(0)----------|-(0)-----------|-(0)----|
|
| Gtr II
|--------|----------16--|-16h17p16------|--------|
|--------|-17---18--16--|-16h17p16--18--|-18-----|
|--------|-16---17------|-----------17--|-17-----|
|--------|--------------|---------------|--------|
|--------|--------------|---------------|--------|
|--------|--------------|---------------|--------|


|--------|---------------|--------------|---------------|
|--------|---------------|--------------|---------------|
|--------|---------------|--------------|---------------|
|--------|---------------|--------------|---------------|
|-3------|-(3)-----------|-(3)----------|-(3)-----------|
|-1------|-(1)-----------|-(1)----------|-(1)-----------|
|
|--------|-16h17p16--19--|-17---16------|---------------|
|--------|-16h17p16--19--|-17---16--18--|-17------------|
|--------|---------------|----------17--|-16---17--16---|
|--------|---------------|--------------|------17--16---|
|--------|---------------|--------------|---------------|
|--------|---------------|--------------|---------------|


 Bridge
 4/4
  Gtrs I, II
  PM-------|          PM---------|                ~
|-------------|-------------|-------------|------------|
|-------------|-------------|-------------|------------|
|-------------|-9--9--------|-------------|------------|
|-------------|-9--9--------|-------------|------------|
|-2-----------|-7--7--------|-------5-----|-8-----7----|
|-0--0--0--0--|-0--0--0--0--|-0--0-----6--|----5-------|


     PM------------------------------------|         ~
|----------------|-----------------|---------------|------|
|----------------|-----------------|---------------|------|
|----------------|-----------------|---------------|------|
|----------------|-----------------|---------------|------|
|-2--------------|-----------------|---------5-----|-7----|
|-0--0-0-0-0-0-0-|-0-0-0-0-0-0-0-0-|-0-0-0-0----6--|------|


   4/4
    Gtrs I, II
    PM----------------|          PM-|                ~
||---------------|-------------|-------------|------------|
||o--------------|-------------|-------------|------------|
||---------------|-------9--9--|-------------|------------|
||---------------|-------9--9--|-------------|------------|
||o-2------------|-2--2--7--7--|-------5-----|-8-----7----|
||--0--0-0-0--0--|-0--0--0--0--|-0--0-----6--|----5-------|


     PM------------------------------------|         ~
                                                           3x
|----------------|-----------------|---------------|-------||
|----------------|-----------------|---------------|------o||
|----------------|-----------------|---------------|-------||
|----------------|-----------------|---------------|-------||
|-2--------------|-----------------|---------5-----|-7----o||
|-0--0-0-0-0-0-0-|-0-0-0-0-0-0-0-0-|-0-0-0-0----6--|-------||


   Interlude
||---------------------|------------------|
||o--------------------|------------------|
||---------------------|------------------|
||--7------------------|-(7)--------------|
||o-7------------------|-(7)--------------|
||--5------------------|-(5)--------------|
|
|   Gtr II
||---------------------|------------------|
||o-----12p0-13p0-12p0-|-10p0-8p0-7p0-8p0-|
||--8-9--9p0-10p0--9p0-|--7p0-5p0-4p0-5p0-|
||--8-9----------------|------------------|
||o--------------------|------------------|
||---------------------|------------------|


|----------------------|-------------------|
|----------------------|-------------------|
|----------------------|-------------------|
|-(7)------------------|-(7)---------------|
|-(7)------------------|-(7)---------------|
|-(5)------------------|-(5)---------------|
|
|----------------------|-------------------|
|-------12p0-13p0-12p0-|-10p0-8p0-7p0-8p0--|
|-----9--9p0-10p0--9p0-|--7p0-5p0-4p0-5p0--|
|-----9----------------|-------------------|
|----------------------|-------------------|
|----------------------|-------------------|


|--------------------|------------------|
|--------------------|------------------|
|--------------------|------------------|
|-6------------------|-(6)--------------|
|-6------------------|-(6)--------------|
|-4------------------|-(4)--------------|
|
|--------------------|------------------|
|-----12p0-13p0-12p0-|-10p0-8p0-7p0-8p0-|
|---9--9p0-10p0--9p0-|--7p0-5p0-4p0-5p0-|
|---9----------------|------------------|
|--------------------|------------------|
|--------------------|------------------|


|--------------------|-------------------||
|--------------------|------------------o||
|-8------------------|-(8)---------------||
|-8------------------|-(8)---------------||
|-6------------------|-(6)--------------o||
|--------------------|-------------------||
|
|--------------------|-------------------||
|-----12p0-13p0-12p0-|-10p0-8p0-7p0-8p0-o||
|---9--9p0-10p0--9p0-|--7p0-5p0-4p0-5p0--||
|---9----------------|-------------------||
|--------------------|------------------o||
|--------------------|-------------------||


 Guitar Solo
  Gtr I
  ~      PM|   ~          PM-------------|                        ~~
|------------|----------|-------------------|-11h12p11p9----9-------|
|------------|----------|-----------7-11-12-|------------12---12-11-|
|------------|-6--------|-----6-8-9---------|-----------------------|
|-6------8h9-|----------|-8-9---------------|-----------------------|
|------------|----------|-------------------|-----------------------|
|------------|----------|-------------------|-----------------------|
|
| Gtr II
|------------|----------|-------------------|-----------------------|
|------------|----------|-------------------|-----------------------|
|------------|-8--------|-------------------|--9--------------------|
|-6----------|-8--------|-7-----------------|--9--------------------|
|-6----------|-6--------|-7-----------------|--7--------------------|
|-4----------|----------|-5-----------------|-----------------------|


|----------11-12----|-16-------16-18----|
|-11-12-11----------|----17-16----------|
|-------------------|-------------------|
|-------------------|-------------------|
|-------------------|-------------------|
|-------------------|-------------------|
|
|-------------------|-------------------|
|-------------------|-------------------|
|-------------------|--9----------------|
|--9----------------|--9----------------|
|--9----------------|--7----------------|
|--7----------------|-------------------|


                                                      ~~~~
|-19p18p16-18p16----16----------------------------|---------|
|----------------17----17p16-17p16p14-17p14-------|---------|
|-------------------------------------------13h15-|-(15)----|
|-------------------------------------------------|---------|
|-------------------------------------------------|---------|
|-------------------------------------------------|---------|
|
|-------------------------------------------------|---------|
|-------------------------------------------------|---------|
|--8----------------------------------------------|--(8)----|
|--8----------------------------------------------|--(8)----|
|--6----------------------------------------------|--(6)----|
|-------------------------------------------------|---------|


|-16------------|-18------------|-19------------|-18h19p18p16h18p16----------|
|-19b21=========|=21b23=========|=22b24=========|===================17-------|
|---------------|---------------|---------------|----------------------16----|
|---------------|---------------|---------------|----------------------------|
|---------------|---------------|---------------|----------------------------|
|---------------|---------------|---------------|----------------------------|
|
|---------------|---------------|---------------|----------------------------|
|---------------|---------------|---------------|----------------------------|
|---------------|--8------------|---------------|--9-------------------------|
|--6------------|--8------------|--7------------|--9-------------------------|
|--6------------|--6------------|--7------------|--7-------------------------|
|--4------------|---------------|--5------------|----------------------------|


                   ~~                                          ~~
|---------------|-----------|---------------------|-----------------|
|-16\----14/----|-19--------|-16-17-16-14-16-14---|-----14----------|
|---------------|-----------|---------------------|-16-----16-15----|
|---------------|-----------|---------------------|-----------------|
|---------------|-----------|---------------------|-----------------|
|---------------|-----------|---------------------|-----------------|
|
|---------------|-----------|---------------------|-----------------|
|---------------|-----------|---------------------|-----------------|
|---------------|--9--------|--8------------------|-(8)-------------|
|--9------------|--9--------|--8------------------|-(8)-------------|
|--9------------|--7--------|--6------------------|-(6)-------------|
|--7------------|-----------|---------------------|-----------------|


 Verse
  Gtrs I, II
    PM--|              PM--|              PM--|
|------------------|------------------|------------------|--------------|
|------------------|------------------|------------------|--------------|
|------------------|------------------|------------------|--------------|
|---------9----(9)-|---------8----(8)-|---------9----(9)-|-5--4---------|
|-2-2-2-2-7----(7)-|-2-2-2-2-6----(6)-|-2-2-2-2-7----(7)-|-3--2--3--5---|
|-0-0-0-0----------|-0-0-0-0----------|-0-0-0-0----------|-------1--3---|


  Gtr I
    PM--|              PM--|
|------------------|------------------|
|------------------|------------------|
|------------------|------------------|
|---------9----(9)-|---------8----(8)-|
|-2-2-2-2-7----(7)-|-2-2-2-2-6----(6)-|
|-0-0-0-0----------|-0-0-0-0----------|
|
| Gtr II
|   PM--|              PM--|
|------------------|------------------|
|------------------|------------------|
|------------------|------------------|
|---------9----(9)-|---------8----(8)-|
|-2-2-2-2-7----(7)-|-2-2-2-2-6----(6)-|
|-0-0-0-0----------|-0-0-0-0----------|


|-----------------------|--------------------|
|-----------------------|--------------------|
|-10--9--7--------------|--------------------|
|----------10--9-7-6----|----------6-7--9-10-|
|---------------------8-|-7-5-7--8-----------|
|-----------------------|--------------------|
|
|-----------------------|--------------------|
|-13-12-10--------------|--------------------|
|----------12-11-9-8----|----------8-9-11-12-|
|--------------------10-|-9-7-9-10-----------|
|-----------------------|--------------------|
|-----------------------|--------------------|


    Gtrs I, II
      PM--|              PM--|              PM--|
||-------------------|------------------|------------------|--------------||
||o------------------|------------------|------------------|-------------o||
||-------------------|------------------|------------------|--------------||
||----------9----(9)-|---------8----(8)-|---------9----(9)-|-5--4---------||
||o-2-2-2-2-7----(7)-|-2-2-2-2-6----(6)-|-2-2-2-2-7----(7)-|-3--2--3--5--o||
||--0-0-0-0----------|-0-0-0-0----------|-0-0-0-0----------|-------1--3---||


    Gtrs I, II
||------0------|----------|------------|--------------||
||o---------0--|----------|------------|-------------o||
||-------------|-5--------|------------|--------------||
||-------------|----------|------------|--------------||
||o-0----------|----------|---------7--|-----3---5---o||
||-------------|----------|-3---5------|-1------------||


  Gtr I
  PM--|  ~~~~~~~~~~~
|-------------|------------|----------|-----------|
|-------------|------------|----------|-----------|
|-------------|------------|----------|-----------|
|-------------|------------|-6--------|------5----|
|-7-9-10------|------------|-4--------|-6----3----|
|-5-7--8-5----|-(5)--------|-4--------|-4----3----|
|
| Gtr II
|        ~~~~~~~~~~~
|-------------|------------|----------|-----------|
|-------------|------------|----------|-----------|
|-------------|------------|-6--------|------5----|
|-7-9-10------|------------|-4--------|-6----3----|
|-5-7--8-5----|-(5)--------|-4--------|-4----3----|
|-------------|------------|----------|-4---------|


  PM--|  ~~~~~~~~~~~
|-------------|------------|----------|-----------|
|-------------|------------|----------|-----------|
|-------------|------------|----------|-----------|
|-------------|------------|-6--------|------5----|
|-7-9-10------|------------|-4--------|-6----3----|
|-5-7--8-5----|-(5)--------|-4--------|-4----3----|
|
|        ~~~~~~~~~~~
|-------------|------------|----------|-----------|
|-------------|------------|----------|-----------|
|-------------|------------|-6--------|------5----|
|-------------|------------|-4--------|-6----3----|
|-5-7--8------|------------|-4--------|-4----3----|
|-3-5--6-3----|-(3)--------|----------|-4---------|


    Gtrs I, II
||------0------|----------|------------|--------------||
||o---------0--|----------|------------|-------------o||
||-------------|-5--------|------------|--------------||
||-------------|----------|------------|--------------||
||o-0----------|----------|---------7--|-----3---5---o||
||-------------|----------|-3---5------|-1------------||


   Chorus
    Gtr I
||--------------------|-----------------------|
||o-------------------|-----------------------|
||--------------------|-----------------------|
||--------------------|--8--------------------|
||o----------8--------|------------5----------|
||--5-----------------|-----------------------|
|
|   Gtr II
||--------------------|-----------------------|
||o-------------------|-----------10----10-12-|
||---------7-9----7---|----7-9-10----10-------|
||--7-9-10-----10---9-|-10--------------------|
||o-------------------|-----------------------|
||--------------------|-----------------------|


|-----------------------|---------------------|
|-----------------------|---------------------|
|-----------------------|---------------------|
|-------------10--------|---------------------|
|--7--------------------|----------10---------|
|-----------------------|-8-------------------|
|
|-----------------------|---------------------|
|-13-12-10----10--------|---------------------|
|----------10----10-9-7-|-9-10-9-7-------7----|
|-----------------------|-----------9-10---9--|
|-----------------------|---------------------|
|-----------------------|---------------------|


  Gtrs I, II
                                                                             8x
|------------------|------------------|------------------|-------------------||
|------------------|------------------|------------------|------------------o||
|------------------|------------------|------------------|-------------------||
|-10-------9-------|-10-------10---9--|-10-------9-------|-10-------10---9---||
|----0-0-0---0-0-0-|----0-0-0----0----|----0-0-0---0-0-0-|----0-0-0----0----o||
|------------------|------------------|------------------|-------------------||


Tablature Legend
----------------
 h   - hammer-on
 p   - pull-off
 b   - bend
 pb  - pre-bend
 r   - bend release (if no number after the r, then release immediately)
 /\  - slide into or out of (from/to "nowhere")
 s   - legato slide
 S   - shift slide
  - natural harmonic
[n]  - artificial harmonic
n(n) - tapped harmonic
 ~   - vibrato
 tr  - trill
 T   - tap
 TP  - trem. picking
 PM  - palm muting
\n/  - tremolo bar dip; n = amount to dip
 \n  - tremolo bar down
 n/  - tremolo bar up
/n\  - tremolo bar inverted dip
 =   - hold bend; also acts as connecting device for hammers/pulls
 <>  - volume swell (louder/softer)
 x   - on rhythm slash represents muted slash
 o   - on rhythm slash represents single note slash

Misc Legend
-----------
 |  - bar
||  - double bar
||o - repeat start
o|| - repeat end
*|  - double bar (ending)
 :  - bar (freetime)
 $  - Segno
 &  - Coda
Tempo markers -  = BPM(8/16=s8/s16), where s8 = swing 8ths, s16 = swing 16ths
comments
print report bad tab
12 comments total. Showing first comments.
0 reply
Pan-Tallica wrote on April 27 2006, 08:27 pm

Very nice tab... Not much else to say.

0 reply
Slayer224 wrote on September 14 2006, 05:03 am

Some bits are wrong.

Pretty good nonetheless.

-1 reply
CKYBAMHIM1990 wrote on December 10 2006, 01:53 pm

great tab but when Chuck plays it he plays the intro like this


* = Palm mute

|-------2-------1
|-------2-------1
|-0-0-0---0-0-0--
* * * * * *


other than that... perfect.

I want to post or [tab]
guest
You may want to rate the tab now too:
select rating
Please do not post tabs as comments. Select "correction" instead!