Oops, an error
Loading. Please wait.

Leprosy Tab

ver1
ver1

Album

Solo

Whole song

More versions @911Tabs.com
12,604 views 33 this week
4 commentsread comments
1 2 3 4 5
excellent!
x 7
Autoscroll
+/-
esc
set tempo
stop
Contributor
WARNING: You are trying to view
                                    content from Ultimate-Guitar.com
                                    in an unauthorized application,
                                    which is prohibited.

                                    Please use an official Ultimate
                                    Guitar Tabs application for iPhone,
                                    iPad or Android to access legitimate
                                    chords, guitar, bass, and drum tabs
                                    from Ultimate-Guitar.com database.

                                    Type "ultimate guitar tabs" in Apple
                                    App Store's or Android Market's
                                    search to find the application.
Tablature Legend
----------------
 h   - hammer-on
 p   - pull-off
 b   - bend
 pb  - pre-bend
 r   - bend release (if no number after the r, then release immediately)
 /\  - slide into or out of (from/to "nowhere")
 s   - legato slide
 S   - shift slide
  - natural harmonic
[n]  - artificial harmonic
n(n) - tapped harmonic
 ~   - vibrato
 tr  - trill
 T   - tap
 TP  - trem. picking
 PM  - palm muting
\n/  - tremolo bar dip; n = amount to dip
 \n  - tremolo bar down
 n/  - tremolo bar up
/n\  - tremolo bar inverted dip
 =   - hold bend; also acts as connecting device for hammers/pulls
 <>  - volume swell (louder/softer)
 x   - on rhythm slash represents muted slash
 o   - on rhythm slash represents single note slash

Misc Legend
-----------
 |  - bar
||  - double bar
||o - repeat start
o|| - repeat end
*|  - double bar (ending)
 :  - bar (freetime)
 $  - Segno
 &  - Coda
Tempo markers -  = BPM(8/16=s8/s16), where s8 = swing 8ths, s16 = swing 16ths


Tuning: DGCFAD

1.) Leprosy

Riff A.1
|---------------------|
|---------------------|
|-3--4--7---2--3--6---|GTRS I
|-3--4--7---2--3--6---|  & II
|-1--2--5---0--1--4---|
|---------------------|


Riff A.2
|---------------------------------------------------|
|---------------------------------------------------|
|-3-----4------7-----------2-----3------6-----------|GTR I
|-3-----4------7-----------2-----3------6-----------|
|-1-----2------5-----------0-----1------4-----------|
|---------------------------------------------------|
|                                                   |
|---------------------------------------------------|
|---------------------------------------------------|
|----------------2-3---2-3--------------------------|GTR II
|---3-4---3-4--0-----0-------2-3---2-3----6-7---6-7-|
|-1-----1------------------0-----0------4-----4-----|
|---------------------------------------------------|


Riff A.3
|---------------------------------------------------|
|---------------------------------------------------|
|----------------2-3---2-3--------------------------|GTRS I
|---3-4---3-4--0-----0-------2-3---2-3----6-7---6-7-|  & II
|-1-----1------------------0-----0------4-----4-----|
|---------------------------------------------------|


Play Riff A.1 two times
Play Riff A.2 two times
Play Riff A.3 two times


Riff B.1
|-----------------------------------------|
|-----------------------------------------|
|-----------------------------------------|GTRS I
|-----------------------------------------|  & II
|--------------444444--------333333333333-|
|-555555555555--------444444--------------|
  ............ ...... ...... ............

 continuation of Riff B.1
|-----------------------------------------|
|-----------------------------------------|
|-----------------------------------------|GTRS I
|-----------------------------------------|  & II
|--------------222222--------111111111111-|
|-333333333333--------222222--------------|
  ............ ...... ...... ............


Riff B.2
|-------------|
|-------------|
|-------------|GTRS I
|-4-3-1-3-----|  & II
|---------4-3-|
|-------------|


Play Riff B.1 four times
Play Riff B.2 one time


Riff C
|-----------------------------------|
|-----------------------------------|
|-----4--5-------------5--4---------|GTRS I
|-3---4--5-5-2---2-3---5--4-5-2---2-|  & II
|-3---2--3-5-2---2-3---3--2-5-2---2-|
|-1--------3-0---0-1--------3-0---0-|


Play Riff C four times


Riff D
|---------------------------------------|
|---------------------------------------|
|---------------------------------------|GTRS I
|---------------------------------------|  & II
|--------6655---------------6655--------|
|-446677------667766-446677------667766-|

 continuation of Riff D
|---------------------------------------|
|---------------------------------------|
|---------------------------------------|GTRS I
|---------------------------------------|  & II
|--------5544---------------5544--------|
|-335566------556655-335566------556655-|

 continuation of Riff D
|---------------------------------------|
|---------------------------------------|
|---------------------------------------|GTRS I
|--------7766---------------7766--------|  & II
|-557788------778877-557788------778877-|
|---------------------------------------|

 continuation of Riff D
|---------------------------------------|
|---------------------------------------|
|---------------------------------------|GTR I
|--------6655---------------6655--------|
|-446677------667766-446677------667766-|
|---------------------------------------|
| ......      ...... ......      ...... |
|*=a.h.                                 |
|---------------------------------------|
|---------------------------------------|
|---------------------------------------|GTR II
|--------6655---------------6-5---------|
|-446677------667766-446677-*-*--6-7-6--|
|--------------------------------*-*-*--|
  ......      ...... ......


Play Riff D two times


Riff E
|-------------------------------|
|-------------------------------|
|-------------------------------|GTR I
|--------5------4------5------4-|
|-222222---2222---2222---2222---|
|-------------------------------|
  ......   ....   ....   ....

 continuation of Riff E
|--------------------------|
|--------------------------|
|--------------------------|GTR I
|--------5------4------5-5-|
|-223333---3333---3333-5-5-|
|----------------------3-3-|
| ......   ....   ....     |
|                          |
|--------------------------|
|--------------------------|
|--------------------------|GTR II
|---------------/\/\/\-5-5-|
|---------------/\/\/\-5-5-|
|----------------------3-3-|

 continuation of Riff E
|--------------------------------------------------------|
|--------------------------------------------------------|
|--------------------------------------------------------|GTRS I
|--------5------4------5------4--------5------4------5-5-|  & II
|-222222---2222---2222---2222---223333---3333---3333-5-5-|
|----------------------------------------------------3-3-|
  ......   ....   ....   ....   ......   ....   ....


Play Riff E one time


Riff F.1
|--------------------------------------------------------|
|--------------------------------------------------------|
|--------------------------------------------------------|GTRS I
|----------------------------------------------------2-2-|  & II
|--------5------4------5------4--------5------4------2-2-|
|-222222---2222---2222---2222---223333---3333---3333-0-0-|
  ......   ....   ....   ....   ......   ....   ....


Riff F.2
|--------------------------------------------------------|
|--------------------------------------------------------|
|--------------------------------------------------------|GTRS I
|--------5------4------5------4--------5------4------5-5-|  & II
|-222222---2222---2222---2222---223333---3333---3333-5-5-|
|----------------------------------------------------3-3-|
  ......   ....   ....   ....   ......   ....   ....


Riff F.3
|----------------------------------------------------------|
|----------------------------------------------------------|
|----------------------------------------------------5-----|GTRS I
|--------5------4------5------4--------5------4------5-5-2-|  & II
|-222222---2222---2222---2222---223333---3333---3333-3-5-2-|
|------------------------------------------------------3-0-|
  ......   ....   ....   ....   ......   ....   ....


Play Riff F.1 two times
Play Riff F.2 two times


Riff G
|---------------------|
|---------------------|
|---------------------|GTRS I
|-2---6---3---5---5-3-|  & II
|-2---6---3---5---5-3-|
|-0---4---1---3---3-1-|


Play Riff G three times


Riff H
|-----------------------------------|
|-----------------------------------|
|-----------------------------------|GTRS I
|-----------------------------------|  & II
|-----------------------------------|
|-0000000000000000-4444444444444444-|
  ................ ................

 continuation of Riff H
|------------------------------------|
|------------------------------------|
|------------------------------------|GTRS I
|--------------------------------5-3-|  & II
|--------------------------------5-3-|
|-1111111111111111-3333333333333-3-1-|
  ................ .............


Play Riff H four times


Riff I.1
|-------------------------------------|
|-------------------------------------|
|-------------------------------------|GTRS I
|-------------------------------------|  & II
|----------22222222----------11111111-|
|-00000000----------33332222----------|
| ........ ........ ........ ........ |
|                                     |
|----------7-----------------6--------|
|-5-----------------8---7-------------|
|-------------------------------------|GTR III
|-------------------------------------|
|-------------------------------------|
|-------------------------------------|

 continuation of Riff I.1
|-------------------------------------|
|-------------------------------------|
|-------------------------------------|GTRS I
|-------------------------------------|  & II
|----------22222222----------1111-----|
|-00000000----------33332222-----1111-|
| ........ ........ ........ ........ |
|                                     |
|----------7-----------------6--------|
|-5-----------------8---7--------6----|
|-------------------------------------|GTR III
|-------------------------------------|
|-------------------------------------|
|-------------------------------------|


Riff I.2
|-------------------------------------|
|-------------------------------------|
|-------------------------------------|GTRS I
|-------------------------------------|  & II
|----------22222222----------11111111-|
|-00000000----------33332222----------|
  ........ ........ ........ ........

 continuation of Riff I.2
|-------------------------------------|
|-------------------------------------|GTRS I
|-------------------------------------|  & II
|----------22222222----------1111-----|
|-00000000----------33332222-----1111-|
  ........ ........ ........ ........


Play Riff I.1 two times
Play Riff I.2 two times


Riff J.1
|-----------------------------------------|
|-----------------------------------------|
|-----------------------------------------|GTRS I
|-----------------------------------------|  & II
|-------------------222211111111----------|
|-33333333-22222222--------------11111111-|
  ........ ........ ............ ........

 continuation of Riff J.1
|-----------------------------------------|
|-----------------------------------------|
|-----------------------------------------|GTRS I
|-----------------------------------------|  & II
|-------------------222211111111-33333333-|
|-33333333-22222222-----------------------|
  ........ ........ ............ ........


Riff J.2
|-----------------------------------------|
|-----------------------------------------|
|-----------------------------------------|GTRS I
|-----------------------------------------|  & II
|-------------------222211111111----------|
|-33333333-22222222--------------11111111-|
  ........ ........ ............ ........

 continuation of Riff J.2
|--------------------------|
|--------------------------|
|--------------------------|GTRS I
|-------------------4-3--5-|  & II
|-------------------2-1--3-|
|-33333333-22222222--------|
  ........ ........


Play Riff J.1 one time
Play Riff J.2 one time
Play Riff B.1 four times
Play Riff B.2 one time
Play Riff C four times
Play Riff D two times
Play Riff E one time
Play Riff F.1 two times
Play Riff F.2 one time
Play Riff F.3 one time

solo:

||-----7-----6-----7-----6-------7-----6----7------6-------------------
||---5---8-7-----5---8-7---6---5---8-7----5---8-7----6-----------------
||---------------------------------------------------------------------
||---------------------------------------------------------------------
||---------------------------------------------------------------------
||---------------------------------------------------------------------


||-----------------------------------------(12)\\\\\\\\\\\\------------
||---------------------------------------------------------------------
||---------------------------9\\\\\\\\\\\\\----------------------------
||---------------------------------------------------------------------
||--------------7\\\\\\\\\\\\------------------------------------------
||-0\\\\\\\\\\\\-------------------------------------------------------

||---------------------------------------------------------------------
||-------------------------------12h13p12------------------------------
||----------7h9p7---------9-11-12----------12-11-----------------------
||--9-10-12-------10-9-------------------------------------------------
||---------------------------------------------------------------------
||---------------------------------------------------------------------

||---------------------------------------------------------------------
||----------11-12-13----------12-14-15----------14-15-17---------------
||-11-12-13----------12-14-15----------14-15-17----------15-17-19------
||---------------------------------------------------------------------
||---------------------------------------------------------------------
||---------------------------------------------------------------------


                        ____tremelo pick____(x8)
||---------------------------------------------------------------------
||-15-17-19-19b-19b-19b-19-16-17-16-16-19-16-----16-17-19-17-16--------
||--------------------------------------------------------------17-16--
||---------------------------------------------------------------------
||---------------------------------------------------------------------
||---------------------------------------------------------------------

||---------------------------------------------------------------------
||---------------------17-16------------------------12----14-10-12-----
||--14-17-16-----16-17-------17-14---------------------12----------14--
||---------------------------------15-12-------------------------------
||---------------------------------------15-12-14----------------------
||---------------------------------------------------------------------

||---------------------------------------------------------------------
||--10-----------------------------------------------------------------
||-----12-14-10-12-9~--8~--10~-----------------------------------------
||---------------------------------------------------------------------
||---------------------------------------------------------------------
||---------------------------------------------------------------------
END.

2.) Born Dead

Tuning = D (D,G,C,F,A,D)

 Riff A
|--------------------------------|
|--------------------------------|
|--------------------------------|GTRS I
|--------------------------------|  & II
|--------------------------------|
|-11111111-33333333-000000000000-|
  ........ ........ ............


|--------------------------------|
|--------------------------------|
|--------------------------------|GTRS I
|--------------------------------|  & II
|----------------------------a.h-|
|-11111111-44444444-33333333-3~--|
  ........ ........ ........


Play Riff A four times


 Riff B
|-------------------------------------------|
|-------------------------------------------|
|-------------------------------------------|GTRS I
|-4--------------7--2-7---------------------|  & II
|-4--------------7--2-5-44444444-5-44444444-|
|-2-222222222222-5--0-----------------------|
    ............        ........   ........

 continuation of Riff B
|-------------------------|
|-------------------------|
|-------------------------|GTRS I
|-------------------------|  & II
|-------------------------|
|-5555-7-5555-4444-5-4444-|
  .... . .... .... . ....


Play Riff B six times


 Riff C.1
|-------------------------------------------------|
|-------------------------------------------------|
|-------------------------------------------------|GTRS I
|-2--3--5--3--------------------------------------|  & II
|-2--3--5--1----------------------------3333------|
|-0--1--3----00000000-11111111-33333333------1111-|
             ........ ........ ........ .... ....


 Riff C.2
|-------------------------------------------|
|-------------------------------------------|
|-------------------------------------------|GTRS I
|-2--3--5--3----------------------------5---|  & II
|-2--3--5--1----------------------------3-3-|
|-0--1--3----00000000-11111111-33333333---1-|
             ........ ........ ........

Play Riff C.1 four times


 Riff D*
|--t-p-p-|-t-p-p-|-------|--------|
|-12-8-5-|-9-5-2-|-t-p-p-|--t-p-p-|
|--------|-------|-9-5-2-|-12-8-5-|GTRS I
|--------|-------|-------|--------|  & II
|--------|-------|-------|--------|
|--------|-------|-------|--------|
 * Play Each Section four times

Play Riff D four times


 Riff E.1
|---------------------------|
|---------------------------|
|---------------------------|GTRS I
|---3-----------------------|  & II
|-2-1----------000----------|
|-0---22222222-----11111111-|
      ........ ... ........


 Riff E.2
|----------------------------------|
|----------------------------------|
|----------------------------------|GTRS I
|----------3-----------------------|  & II
|----------1----------000----------|
|-00000000---22222222-----11111111-|
  ........   ........ ... ........


Play Riff E.1 one time
Play Riff E.2 six times
Play Riff E.2 four times (twice speed)


 Riff F.1
|------------------------------------------------|
|------------------------------------------------|
|-6-----------------------6----------------------|GTRS I
|-4-----------------------4----------------------|  & II
|---222222-444444-555555----222222-444444-555555-|
|------------------------------------------------|
    ...... ...... ......    ...... ...... ......

 continuation of Riff F.1
|---------------------------------------|
|---------------------------------------|
|-5-------------------------5-----------|GTRS I
|-3-------------------------3-----------|  & II
|---111111-333333-444444------a.h.-a.h.-|
|------------------------------4~---3~--|
    ...... ...... ......


 Riff F.2 - Solo
|------------------------------------------------|
|------------------------------------------------|
|-6-----------------------6----------------------|GTRS I
|-4-----------------------4----------------------|  & II
|---222222-444444-555555----222222-444444-555555-|
|------------------------------------------------|
    ...... ...... ......    ...... ...... ......

 continuation of Riff F.2
|-------------------------------------------|
|-------------------------------------------|
|-5-------------------------5---------------|GTRS I
|-3-------------------------3---------------|  & II
|---111111-333333-444444--------------------|
|-----------------------------444444-333333-|
    ...... ...... ......      ...... ......


Play Riff F.1 one time
Play Riff F.2 four times


 Riff G
|-------------------------------------|
|-------------------------------------|
|-------------------------------------|GTRS I
|-------------------------------------|  & II
|-------------------------------------|
|-55555555-11111111-0000-333333333333-|
  ........ ........ .... ............


Play Riff G four times
Play Riff B six times
Play Riff C.1 three times
Play Riff C.2 one time
END.

3.) Forgotton Past


 Riff A.1
|-----------------------------------------|
|-----------------------------------------|
|-6-------------------5-------------------|GTR I
|-6--6-7--------------5--5/6--------------|
|-4--6-7--------------3--5/6--------------|
|----4-5-222222222222----3/4-111111111111-|
         ............        ............

 Riff A.2
|--------------------------------------------------|
|--------------------------------------------------|
|------------------------------5-------------------|GTRS I
|------------------------------5--5/6--------------|  & II
|-3-2-----3-2---4--------------3--5/6--------------|
|-----3-4-----3---222222222222----3/4-111111111111-|
                  ............        ............


Play Riff A.1 two times
Play Riff A.2 one time
Play Riff A.1 one time
Play Riff A.2 one time
Play Riff A.1 one time


 Riff B
|------------------------------------------------------|
|------------------------------------------------------|
|------------------------------------------------------|GTRS I
|------------------------------------------------------|  & II
|----------6666-----------------------4444-------------|
|-55555555------444444444444-33333333------22222222222-|
  ........ .... ............ ........ .... ...........


Play Riff B four times


 Riff C.1
|-----------|
|-----------|
|------3----|GTRS I
|-5-3--3-4--|  & II
|-5-3--1-4--|
|-3-1----2--|


 Riff C.2
|---------------------------------------------|
|---------------------------------------------|
|---------------------------------------------|GTRS I
|---------------------------------------------|  & II
|-----------------------11111111--------------|
|-33333333-111111111111----------222222222222-|
  ........ ............ ........ ............


Play Riff C.1 two times
Play Riff C.2 four times
Play Riff C.1 two times


 Riff D.1
|---------------------------------------------|
|---------------------------------------------|
|---------------------------------------------|GTRS I
|---------------------------------------------|  & II
|--------------444444444444----------33333333-|
|-222222222222--------------55555555----------|
  ............ ............ ........ ........

 continuation of Riff D.1
|----------------------|
|----------------------|
|----------------------|GTRS I
|----------------------|  & II
|----------22222222----|
|-44444444----------33-|
  ........ ........ ..


 Riff D.2
|---------------------------------------------|
|---------------------------------------------|
|---------------------------------------------|GTR I
|---------------------------------------------|
|--------------444444444444----------33333333-|
|-222222222222--------------55555555----------|
| ............ ............ ........ ........ |
|                                             |
|---------------------------------------------|
|---------------------------------------------|
|--------------666666666666----------55555555-|GTR II
|-444444444444--------------77777777----------|
|---------------------------------------------|
|---------------------------------------------|

 continuation of Riff D.2
|----------------------|
|----------------------|
|----------------------|GTR I
|----------------------|
|----------22222222----|
|-44444444----------33-|
| ........ ........ .. |
|                      |
|----------------------|
|----------------------|
|----------44444444----|GTR II
|-66666666----------55-|
|----------------------|
|----------------------|


 Riff D.3
|-------------------|
|-------------------|
|----6----5----4----|GTR I
|-4--6--7-5--6-4--5-|
|-4--4--7-3--6-2--5-|
|-2-----5----4----3-|
|                   |
|-------------------|
|-------------------|
|----6----5----4----|GTR II
|-4-----7----6----5-|
|-------------------|
|-------------------|


Play Riff D.1 three times
Play Riff D.2 two times
Play Riff D.3 one time


 Riff E
|---------------------------------------------------------|
|---------------------------------------------------------|
|---------------------------------------------------------|GTRS I
|---------------------------------------------------------|  & II
|---------------------------------------------------------|
|-222222222222-44444444-55555555-111111111111-00000000000-|
  ............ ........ ........ ............ ...........


Play Riff E four times


 Riff F
|------------------------------------------------------|
|------------------------------------------------------|
|------------------------------------------------------|GTRS I
|------------------------------------------------------|  & II
|---------------------------------------------11111111-|
|-222222222222-33333333-22222222-000000000000----------|
  ............ ........ ........ ............ ........

 continuation of Riff F
|------------------------------------------------------|
|------------------------------------------------------|
|------------------------------------------------------|GTRS I
|------------------------------------------------------|  & II
|---------------------------------------------1111-----|
|-222222222222-33333333-22222222-000000000000-----1111-|
  ............ ........ ........ ............ ........


Play Riff F four times


 Riff G - Solo 1
|----------------------------------------------------|
|----------------------------------------------------|
|----------------------------------------------------|GTRS I
|----------------------------------------------------|  & II
|----------------------------------------------------|
|-22222222222-333333333333-111111111111-222222222222-|
  ........... ............ ............ ............


Play Riff G four times


 Riff H.1 - Solo 2
|--------------------------|
|--------------------------|
|------4-------------------|GTRS I
|-2--5-4-------------------|  & II
|-2--5-2-11111111----------|
|-0--3------------11111111-|
         ........ ........


 Riff H.2 - Solo 2
|-------------------|
|-------------------|
|------4------------|GTRS I
|-2--5-4----------3-|  & II
|-2--5-2-11111111-3-|
|-0--3------------1-|
         ........


Play Riff H.1 three times
Play Riff H.2 one time
Play Riff A.1 two times
Play Riff A.2 one time
Play Riff A.1 one time
Play Riff A.2 one time
Play Riff A.1 one time
Play Riff B four times
Play Riff C.1 two times
Play Riff C.2 four times
Play Riff C.1 two times
END.

4.) Left To Die

Riff A
|----------------------------------------------------------|
|-5-4h54---------------------------------------------------|
|--------6-5h6p5-------------------------------------------|GTRS I
|----------------7-6h7p6-------------------------------2-5-|  & II
|------------------------7-6h7p6-----------------------2-5-|
|--------------------------------7-6h7p6-4-6-4-3-4-3/1-0-3-|


Play Riff A one time


Riff B.1
|--------------------------------------|
|--------------------------------------|
|--------------------------------------|GTRS I
|--------------------------------------|  & II
|--------6~-5----------5h6-----5h6-----|
|-4--6-7-----6-5~--6-7-----6-7-----7-6-|
     . .     .     . .     . .     . .


Riff B.2
|-------------------------------------|
|-------------------------------------|
|-------------------------------------|GTR I
|-------------------------------------|
|-------6~--5---------5h6-----5h6-----|
|-4--6-7-----6-5~-6-7-----6-7-----7-6-|
|    . .     .    . .     . .     . . |
|                                     |
|-------------------------------------|
|-------------------------------------|
|-------8~--7---------7h8-----7h8-----|GTR II
|-6--8-9-----8-7~-8-9-----8-9-----9-8-|
|-------------------------------------|
|-------------------------------------|


Play Riff B.1 two times
Play Riff B.2 two times


Riff C
|----------------------|
|----------------------|
|-------3--------------|GTRS I
|-2-----3-----2-3-6----|  & II
|-2-----1-----2-3-6----|
|-0-0-0---0-0-0-1-4-3~-|
    . .   . .


Play Riff C play eight times


Riff D
|----------------------------------------------------------|
|----------------------------------------------------------|
|----------------------------------------------------------|GTR I
|----------------------------------------------------------|
|--------------5p4p0-5p4p0-5p4p0-5p4p0-111111111-----------|
|-222222222222-----------------------------------111111111-|
| ............                         ......... ......... |
|                                                          |
|----------------------------------------------------------|
|----------------------------------------------------------|
|--------------7p6p0-7p6p0-7p6p0-7p6p0---------------------|GTR II
|----------------------------------------------------------|
|--------------------------------------111111111-----------|
|-222222222222-----------------------------------111111111-|
  ............                         ......... .........


Play Riff D six times


Riff E
|--------------------------------|
|--------------------------------|
|--------------------------------|GTRS I
|-22222222-----------------------|  & II
|----------11111111--------------|
|-------------------333333333333-|
  ........ ........ ............

 continuation of Riff E
|--------------------------------|
|--------------------------------|
|--------------------------------|GTRS I
|--------------------------------|  & II
|-22222222-----------------------|
|----------11111111-000000000000-|
  ........ ........ ............


Play Riff E four times


Riff F
|-------------------------------------|
|-------------------------------------|
|-------------------------------------|GTRS I
|-------------------------------------|  & II
|-----2--------2--------6--------6----|
|-000---00-000---00-444---44-444---44-|
  ...   .. ...   .. ...   .. ...   ..

 continuation of Riff F
|------------------------------------|
|------------------------------------|
|------------------------------------|GTRS I
|-------------------------------a.h.-|  & II
|-----3--------3--------5--------5~--|
|-111---11-111---11-333---33-333-----|
  ...   .. ...   .. ...   .. ...


Play Riff F six times


Riff G - Solo 1
|-------------|
|-------------|
|----5--------|
|-2--5-4-6--3-|
|-2--3-4-6--3-|
|-0----2-4--1-|


Play Riff G eight times


Riff H
|--------------------------------|
|--------------------------------|
|--------------------------------|GTRS I
|----------3------5------7/6-----|  & II
|----------3------5------5/4-7/6-|
|-00000000-1-0000-3-0000-----5/4-|
  ........   ....   ....

 continuation of Riff H
|--------------------------------|
|--------------------------------|
|--------------------------------|GTRS I
|----------3------5----------4\5-|  & II
|----------3------5------4\5-2\3-|
|-00000000-1-0000-3-0000-2\3-----|
  ........   ....   ....


Play Riff H eight
Play Riff C eight times
Play Riff D six times
Play Riff E eight times
END.

5.) Open Casket

RIFF#1. UP AND DOWN STROKE PICKING..SLIGHTLY FAST.
|-------------------------------------------------
|-------------------------------------------------
|-------------------------------------------------
|-------------------------------------------------
|------------------------4-----------5-----------5
|2-2-2-2-2-2-2-2-2-2-2-2---2-2-2-2-2---2-2-2-2-2--
 . . . . . .   . . . . .   . . . . .   . . . . .

RIFF#1. CONTINUED..                                FILL.
|---------------------------------|--------------|-----||
|---------------------------------|--------------|-----||
|---------------------------------|--------------|-----||
|---------------------------------|--------------|4(PH)||
|---------------------------------|-6------------|-----||
|3-3-3-3-3-6-3-3-3-3-3-3-3-3-3-3-3|---3-3-3-3-3-3|-----||
 . . . . .   . . . . .   . . . . .    . . . . . .

RIFF#2. FAST/SLIGHT PALM MUTE.  FILL.
|---------------|-----------|-----------||
|---------------|-----------|-----------||
|---------------|-----------|-----------||
|---------------|-----------|-----------||
|---777666------|-----------|666--------||
|444------777666|44433333333|---55555555||


RIFF#3.
|--------------------------------||
|--------------------------------||
|--------------------------------||
|---------------------9-------8--||
|6------------7-6-----7----9--6--||
|4----------------7--------7-----||
 S                    S

RIFF#4.FAST..
|-------------------------||
|-------------------------||
|-------------------------||
|--8----------8-----------||
|6-6-00000000-6-6---------||
|4--------------4-33333333||
     ........     ........

REPEAT RIFF#2.

RIFF#5.FAST
|------------------------------------------||
|------------------------------------------||
|------------------------------------------||
|------------------------------------111111||
|--------111111444444--------44444444------||
|11111111------------44444444--------------||
 ............................,,,,,,,,,,,,,,

RIFF#6. FAST
|----------------------------------------------------------------||
|----------------------------------------------------------------||
|----------------------------------------------------------------||
|----------------------------------------------------------------||
|------------------------------------------------66666666--------||
|444444447777777766666666333333334444444477777777--------55555555||
 ,,,,,,,,,,,,,,,,,,,,,,,,,,,,,,,,,,,,,,,,,,,,,,,,,,,,,,,,,,,,,,,,

RIFF#7.
|--------------------------------------------||
|--------------------------------------------||
|--------------------------------------------||
|--------------------------------------------||
|7-----8-----7-----8-----5-----6-----5-----6-||
|--0-7---0-7---0-7---0-7---0-0---0-0---0-0---||
   . .   . .   . .   . .   . .   . .   . .

RIFF#8.
|-------------------||
|-------------------||
|-------------------||
|---8-7------8-7----||
|6--6-5-9--6-6-5-4-4||
|4------7--4-----2-2||

RIFF#9.FAST..SLIGHT P.M.
|--------------------------------------------------||
|--------------------------------------------------||
|--------------------------------------------------||
|--------------------------------------------------||
|------666666555555------------666666555555--------||
|444444------------777777444444------------22222222||
 ,,,,,,,,,,,,,,,,,,,,,,,,,,,,,,,,,,,,,,,,,,,,,,,,,,

REPEAT RIFF#8.
REPEAT RIFF#1.
REPEAT RIFF#2.
REPEAT RIFF#4.

END CHORD.
|-||
|-||
|-||
|-||
|5||
|3||
END.

6.) Pull The Plug

Verse 1
   Moderate Metal Q=124
           $
           E5       Bb5  F5     C#5  G#5    C5   G5               E5
  4/4
   Gtr I
   PM----|                                                PM----|
   E E E E H        H    H      H    H      H     H       E E E E H     3x
*|--------------||------------|-----------|-------------|---------------||
*|--------------||o-----------|-----------|-------------|--------------o||
*|--------------||------------|-----------|-------------|---------------||
*|--------------||--3---------|-6---------|-5-----------|---------------||
*|-3-2-----2----||o-1----3----|-4----6----|-3-----5-----|-3-2-----2----o||
*|-----3-2-0----||-------1----|------4----|-------3-----|-----3-2-0-----||
|
|  Gtr II
|  PM----|                                        ~~~     PM----|
|  E E E E H        H    H      H    H      H     H       E E E E H     3x
*|--------------||------------|-----------|-------------|---------------||
*|--------------||o-----------|-----------|-------------|--------------o||
*|--------------||------------|-----------|-------------|---------------||
*|--------------||--3---------|-6---------|-5-----------|---------------||
*|-3-2-----2----||o-1----3----|-4----6----|-3----[5]----|-3-2-----2----o||
*|-----3-2-0----||-------1----|------4----|-------------|-----3-2-0-----||


  Bb5  F5     C#5  G#5    C5   G5
 4/4                                   1/2
                                        PM----|
  H    H      H    H      H     H       E E E E
|-----------|-----------|-------------|---------|
|-----------|-----------|-------------|---------|
|-----------|-----------|-------------|---------|
|-3---------|-6---------|-5-----------|---------|
|-1----3----|-4----6----|-3-----5-----|-3-2-----|
|------1----|------4----|-------3-----|-----3-2-|
|
|                               ~~~     PM----|
| H    H      H    H      H     H       E E E E
|-----------|-----------|-------------|---------|
|-----------|-----------|-------------|---------|
|-----------|-----------|-------------|---------|
|-3---------|-6---------|-5-----------|---------|
|-1----3----|-4----6----|-3----[5]----|-3-2-----|
|------1----|------4----|-------------|-----3-2-|


 Pre Chorus
  Faster Q=160
                                          F#5G5
 4/4
  Gtrs I, II
  PM------------------------------------|
  S S S S E E S S S S E E   S S S S E E E Q  E
|-------------------------|--------------------|
|-------------------------|--------------------|
|-------------------------|--------------------|
|-------------------------|--------------------|
|-------------------------|---------------4s=5-|
|-0-0-0-0-7-8-0-0-0-0-5-7-|-0-0-0-0-3-5-3-2s=3-|


  PM--------------------------------------------------------------|
  S S S S S S S S S S S S S S S S   S S S S S S S S S S S S S S S S
|---------------------------------|---------------------------------|
|---------------------------------|---------------------------------|
|---------------------------------|---------------------------------|
|---------------------------------|---------------------------------|
|---------------------------------|-2-2-2-2-2-2-2-2-2-2-2-2-2-2-2-2-|
|-1-1-1-1-1-1-1-1-1-1-1-1-1-1-1-1-|---------------------------------|


                                          F#5G5
  PM------------------------------------|
  S S S S E E S S S S E E   S S S S E E E Q  E
|-------------------------|--------------------|
|-------------------------|--------------------|
|-------------------------|--------------------|
|-------------------------|--------------------|
|-------------------------|---------------4s=5-|
|-0-0-0-0-7-8-0-0-0-0-5-7-|-0-0-0-0-3-5-3-2s=3-|


  PM--------------------------------------------------------------|
  S S S S S S S S S S S S S S S S   S S S S S S S S S S S S S S S S
|---------------------------------|---------------------------------|
|---------------------------------|---------------------------------|
|---------------------------------|---------------------------------|
|---------------------------------|---------------------------------|
|---------------------------------|-1-1-1-1-1-1-1-1-1-1-1-1-1-1-1-1-|
|-1-1-1-1-1-1-1-1-1-1-1-1-1-1-1-1-|---------------------------------|


                                          F#5G5
  PM------------------------------------|
  S S S S E E S S S S E E   S S S S E E E Q  E
|-------------------------|--------------------|
|-------------------------|--------------------|
|-------------------------|--------------------|
|-------------------------|--------------------|
|-------------------------|---------------4s=5-|
|-0-0-0-0-7-8-0-0-0-0-5-7-|-0-0-0-0-3-5-3-2s=3-|


  PM--------------------------------------------------------------|
  S S S S S S S S S S S S S S S S   S S S S S S S S S S S S S S S S
|---------------------------------|---------------------------------|
|---------------------------------|---------------------------------|
|---------------------------------|---------------------------------|
|---------------------------------|---------------------------------|
|---------------------------------|-2-2-2-2-2-2-2-2-2-2-2-2-2-2-2-2-|
|-1-1-1-1-1-1-1-1-1-1-1-1-1-1-1-1-|---------------------------------|


                                          F#5G5
  PM------------------------------------|
  S S S S E E S S S S E E   S S S S E E E Q  E
|-------------------------|--------------------|
|-------------------------|--------------------|
|-------------------------|--------------------|
|-------------------------|--------------------|
|-------------------------|---------------4s=5-|
|-0-0-0-0-7-8-0-0-0-0-5-7-|-0-0-0-0-3-5-3-2s=3-|


                                    Bb5
  PM----------------------------|
  S S S S S S S S S S S S S S S S   Q  H.
|---------------------------------|----------|
|---------------------------------|----------|
|---------------------------------|----------|
|---------------------------------|-3--------|
|---------------------------------|-1--------|
|-1-1-1-1-1-1-1-1-1-1-1-1-1-1-1-1-|----------|


   Chorus
    Slower Q=110
            E5         E5           F5 B5G5Bb5
    PM----|    PM----|      PM----|
      |-3-|      |-3-|        |-3-|
    E S S S Q  E S S S Q    E S S S Q  E E Q
||------------------------|-------------------|
||o-----------------------|-------------------|
||------------------------|-------------------|
||----------2----------2--|---------3--4---3--|
||o---------2----------2--|---------3--2-5-1--|
||--0-0-0-0-0--0-0-0-0-0--|-1-1-1-1-1----3----|


          E5         E5           F5 B5G5C5
  PM----|    PM----|      PM----|
    |-3-|      |-3-|        |-3-|
  E S S S Q  E S S S Q    E S S S Q  E E Q
|-----------------------|--------------------||
|-----------------------|-------------------o||
|-----------------------|--------------------||
|---------2----------2--|---------3--4---5---||
|---------2----------2--|---------3--2-5-3--o||
|-0-0-0-0-0--0-0-0-0-0--|-1-1-1-1-1----3-----||


   Bridge
    Fine
     Gtr I
     S S S S S S E S S S S S S E   S S S S S S E S S S S S S E
||-------------------------------|-------------------------------||
||o------------------------------|------------------------------o||
||-------------------------------|-------------------------------||
||-------------------------------|-------------------------------||
||o--7p6---8p7---7-7p6---8p7---7-|-7p6---8p7---7-7p6---8p7---7--o||
||-------8-----9-------8-----9---|-----8-----9-------8-----9-----||


    Gtr I
    S S S S S S E S S S S S S E   S S S S S S E S S S S S S E
||------------------------------|------------------------------||
||o-----------------------------|-----------------------------o||
||------------------------------|------------------------------||
||------------------------------|------------------------------||
||o-7p6---8p7---7-7p6---8p7---7-|-7p6---8p7---7-7p6---8p7---7-o||
||------8-----9-------8-----9---|-----8-----9-------8-----9----||
|
|   Gtr II
|   S S S S S S E S S S S S S E   S S S S S S E S S S S S S E
||------------------------------|------------------------------||
||o-----------------------------|-----------------------------o||
||------------------------------|------------------------------||
||------------------------------|------------------------------||
||o-2p1---3p2---2-2p1---3p2---2-|-2p1---3p2---2-2p1---3p2---2-o||
||------3-----4-------3-----4---|-----3-----4-------3-----4----||


  Faster Q=124
  E E Q  E E Q    E E Q   E  E Q    E E Q  E E Q    E E Q   E  E Q
|---------------|-----------------|---------------|-----------------|
|---------------|-----------------|---------------|-----------------|
|---------------|-----------------|---------------|-----------------|
|--------6---5--|-----------------|--------6---5--|-----------------|
|-5---4----7----|-7---6---8----7--|-5---4----7----|-7---6---8----7--|
|---6-----------|---8--------9----|---6-----------|---8--------9----|
|
| E E Q  E E Q    E E Q   E  E Q    E E Q  E E Q    E E Q   E  E Q
|---------------|-----------------|---------------|-----------------|
|--------9---8--|-----------------|--------9---8--|-----------------|
|----------9----|--------10----9--|----------9----|--------10----9--|
|---------------|-----------11----|---------------|-----------11----|
|-5---4---------|-7---6-----------|-5---4---------|-7---6-----------|
|---6-----------|---8-------------|---6-----------|---8-------------|


                                                    1/2
  E E Q  E E Q    E  E Q   E  E Q    E E Q  E E Q    E  E Q
|---------------|------------------|---------------|---------|
|---------------|------------------|---------------|---------|
|---------------|------------------|---------------|---------|
|--------6---5--|------------------|--------6---5--|---------|
|-5---4----7----|-7----6---8----7--|-5---4----7----|-7----6--|
|---6-----------|----8--------9----|---6-----------|----8----|
|
| E E Q  E E Q    E  E Q   E  E Q    E E Q  E E Q    E  E Q
|---------------|------------------|---------------|---------|
|--------9---8--|------------------|--------9---8--|---------|
|-7---6----9----|-9----8--10----9--|-7---6----9----|-9----8--|
|---8-----------|---10-------11----|---8-----------|---10----|
|---------------|------------------|---------------|---------|
|---------------|------------------|---------------|---------|


   Verse 2
    Double Time Q=210
   4/4
    Gtrs I, II
    PM------------|           PM------------|
    S S S S S S S S E E E E   S S S S S S S S E E E E
||--------------------------|--------------------------||
||o-------------------------|-------------------------o||
||--------------------------|--------------------------||
||--------------------------|--------------------------||
||o-----------------6---5---|-----------------6---5---o||
||--4-4-4-4-4-4-4-4---7---6-|-4-4-4-4-4-4-4-4---7---6--||


    S S S S S S S S S S S S S S S S   S S S S S S S S S S S S S S S S
||----------------------------------|----------------------------------|
||o---------------------------------|----------------------------------|
||----------------------------------|----------------------------------|
||----------------------------------|----------------------------------|
||o---------------------------------|-1-1-1-1-2-2-2-2-1-1-1-1-2-2-2-2--|
||--3-3-3-3-4-4-4-4-3-3-3-3-4-4-4-4-|----------------------------------|


  S S S S S S S S S S S S S S S S   S S S S S S S S S S S S S S S S
|---------------------------------|----------------------------------||
|---------------------------------|---------------------------------o||
|---------------------------------|----------------------------------||
|---------------------------------|----------------------------------||
|---------------------------------|---------------------------------o||
|-3-3-3-3-4-4-4-4-3-3-3-3-4-4-4-4-|-2-2-2-2-2-2-2-2-2-2-2-2-2-2-2-2--||


    PM------------|           PM------------|
    S S S S S S S S E E E E   S S S S S S S S E E E E   4x
||--------------------------|---------------------------||
||o-------------------------|--------------------------o||
||--------------------------|---------------------------||
||--------------------------|---------------------------||
||o-----------------6---5---|-----------------6---5----o||
||--4-4-4-4-4-4-4-4---7---6-|-4-4-4-4-4-4-4-4---7---6---||


    S S S S S S S S S S S S S S S S   S S S S S S S S S S S S S S S S
||----------------------------------|----------------------------------|
||o---------------------------------|----------------------------------|
||----------------------------------|----------------------------------|
||----------------------------------|----------------------------------|
||o---------------------------------|-1-1-1-1-2-2-2-2-1-1-1-1-2-2-2-2--|
||--3-3-3-3-4-4-4-4-3-3-3-3-4-4-4-4-|----------------------------------|


  S S S S S S S S S S S S S S S S   S S S S S S S S S S S S S S S S
|---------------------------------|----------------------------------||
|---------------------------------|---------------------------------o||
|---------------------------------|----------------------------------||
|---------------------------------|----------------------------------||
|---------------------------------|---------------------------------o||
|-3-3-3-3-4-4-4-4-3-3-3-3-4-4-4-4-|-2-2-2-2-2-2-2-2-2-2-2-2-2-2-2-2--||


   Solo Rythm 1
    Slower Q=180
    PM--------------------------------------------------------------|
    S S S S S S S S S S S S S S S S   S S S S S S S S S S S S S S S S
||----------------------------------|----------------------------------|
||o---------------------------------|----------------------------------|
||----------------------------------|----------------------------------|
||----------------------------------|----------------------------------|
||o---------------------------------|----------------------------------|
||--1-1-1-1-1-1-1-1-1-1-1-1-1-1-1-1-|-0-0-0-0-0-0-0-0-0-0-0-0-0-0-0-0--|


  PM--------------------------------------------------------------|
  S S S S S S S S S S S S S S S S   S S S S S S S S S S S S S S S S
|---------------------------------|---------------------------------|
|---------------------------------|---------------------------------|
|---------------------------------|---------------------------------|
|---------------------------------|---------------------------------|
|---------------------------------|---------------------------------|
|-3-3-3-3-3-3-3-3-3-3-3-3-3-3-3-3-|-2-2-2-2-2-2-2-2-2-2-2-2-2-2-2-2-|


  PM--------------------------------------------------------------|
  S S S S S S S S S S S S S S S S   S S S S S S S S S S S S S S S S
|---------------------------------|---------------------------------|
|---------------------------------|---------------------------------|
|---------------------------------|---------------------------------|
|---------------------------------|---------------------------------|
|-1-1-1-1-1-1-1-1-1-1-1-1-1-1-1-1-|---------------------------------|
|---------------------------------|-1-1-1-1-1-1-1-1-1-1-1-1-1-1-1-1-|


  PM--------------------------------------------------------------|
  S S S S S S S S S S S S S S S S   S S S S S S S S S S S S S S S S  4x
|---------------------------------|----------------------------------||
|---------------------------------|---------------------------------o||
|---------------------------------|----------------------------------||
|---------------------------------|----------------------------------||
|---------------------------------|---------------------------------o||
|-0-0-0-0-0-0-0-0-0-0-0-0-0-0-0-0-|-0-0-0-0-0-0-0-0-0-0-0-0-0-0-0-0--||


   Solo Rythm 2
    PM--------------------------------------------------------------|
    S S S S S S S S S S S S S S S S   S S S S S S S S S S S S S S S S
||----------------------------------|----------------------------------|
||o---------------------------------|----------------------------------|
||----------------------------------|----------------------------------|
||----------------------------------|----------------------------------|
||o-2-2-2-2-2-2-2-2-2-2-2-2-2-2-2-2-|----------------------------------|
||----------------------------------|-3-3-3-3-3-3-3-3-3-3-3-3-3-3-3-3--|


  PM--------------------------------------------------------------|
  S S S S S S S S S S S S S S S S   S S S S S S S S S S S S S S S S  3x
|---------------------------------|----------------------------------||
|---------------------------------|---------------------------------o||
|---------------------------------|----------------------------------||
|---------------------------------|----------------------------------||
|-1-1-1-1-1-1-1-1-1-1-1-1-1-1-1-1-|---------------------------------o||
|---------------------------------|-2-2-2-2-2-2-2-2-2-2-2-2-2-2-2-2--||


  PM--------------------------------------------------------------|
  S S S S S S S S S S S S S S S S   S S S S S S S S S S S S S S S S
|---------------------------------|---------------------------------|
|---------------------------------|---------------------------------|
|---------------------------------|---------------------------------|
|---------------------------------|---------------------------------|
|-2-2-2-2-2-2-2-2-2-2-2-2-2-2-2-2-|---------------------------------|
|---------------------------------|-3-3-3-3-3-3-3-3-3-3-3-3-3-3-3-3-|


                                    D.S. al Fine
                                    F#G5F#F#G5F#5
                                   3/4
  PM------------------------------------------|
  S S S S S S S S S S S S S S S S   E E E E E E
|---------------------------------|--------------*|
|---------------------------------|--------------*|
|---------------------------------|--------------*|
|---------------------------------|--------------*|
|-1-1-1-1-1-1-1-1-1-1-1-1-1-1-1-1-|-4-5-4-4-5-4--*|
|---------------------------------|-2-3-2-2-3-2--*|

END

7.) Primitive Ways

Riff A.1
|------------------------------|
|------------------------------|
|------------------------------|GTRS I
|-----------------3------------|  & II
|----------5------1----------3-|
|-00000000-3-0000---00000000-1-|
  ........   ....   ........


Riff A.2
|----------------------------|
|----------------------------|
|----------------------------|GTRS I
|-----------------3----------|  & II
|----------5------1------5-3-|
|-00000000-3-0000---0000-3-1-|
  ........   ....   ....


Play Riff A.1 two times
Play Riff A.2 one time
Play Riff A.1 six times


Riff B
|--------------------------------------------------|
|--------------------------------------------------|
|--------------------------------------------------|GTRS I
|--------------------------------------------------|  & II
|-------444444------666666------333333------555555-|
|-222222------444444------111111------333333-------|
  ................................................


Play Riff B four times


Riff C
|-------------------------------------------------|
|-------------------------------------------------|
|-------------------------------------------------|GTRS I
|-------------------2-----------------------2-----|  & II
|-3-----2-----3-----------3-----2-----3-----------|
|--1111--1111--1111--1111--1111--1111--1111--1111-|
   ....  ....  ....  ....  ....  ....  ....  ....

 continuation of Riff C
|-------------------------------------------------|
|-------------------------------------------------|
|-------------------------------------------------|GTRS I
|-------------------4-----------------------4-----|  & II
|-5-----4-----5-----------5-----4-----5-----------|
|--3333--3333--3333--3333--3333--3333--3333--3333-|
   ....  ....  ....  ....  ....  ....  ....  ....


Play Riff C two times


Riff D.1
|---------------------------------------|
|---------------------------------------|
|---------------------------------------|GTR I
|-6-----8-----7------3-----5-----4------|
|-6-----6-----5------3-----3-----2------|
|-4------------------1------------------|
|                                       |
|---------------------------------------|
|---------------------------------------|
|---------------------------------------|GTR II
|---------------------------------------|
|-------666666555555-------333333222222-|
|-444444-------------111111-------------|
  .................. ..................



Riff D.2
|---------------------------------------|
|---------------------------------------|
|---------------------------------------|GTRS I
|---------------------------------------|  & II
|-------666666555555-------333333222222-|
|-444444-------------111111-------------|
  .................. ..................


Play Riff D.1 two times
Play Riff D.2 four times


Riff E
|-----------------------------------------|
|-----------------------------------------|
|-----------------------------------------|GTRS I
|-----------------------------------------|  & II
|-----------------------------------------|
|-333333333333-111111-333333-000000111111-|
  ............ ...... ...... ............


Play E four times
Play Riff A.1 two times
Play Riff A.2 one time
Play Riff A.1 six times
Play Riff B four times
Play Riff C two times
Play Riff D.1 two times
Play Riff D.2 four times


Riff F
|------------------------------|
|------------------------------|
|------------------------------|GTRS I
|------------------------------|  & II
|---------55554444-------------|
|-22222222--------111111111111-|
  ............................

  continuation of Riff F
|------------------------------|
|------------------------------|
|------------------------------|GTRS I
|------------------------------|  & II
|---------55554444-------------|
|-22222222--------111111333333-|
  ............................


Play Riff F two times


Riff G
|----------------------------------|
|----------------------------------|
|----------------------------------|GTRS I
|----------------------------------|  & II
|----------------------------------|
|-22222222444444441111111133333333-|
  ................................


Play Riff G four times
Play Riff C two times
Play Riff A.1 two times
Play Riff A.2 one time
END.

8.) Choke On It

NOTE:BE CAREFUL!  RIFF#5 AND #6 ARE TWO OF THE MOST CRAZIEST
RIFFS I'VE EVER TRIED PLAYING..HEH..

Intro. RIFF#1.
|------------------------------------------------||
|------------------------------------------------||
|------------------------------------------------||
|---------9------------------------9--------8~---||
|2----------10-9-5-7-5-6~--6----------10-9-5-----||
|0-------------------------4---------------------||
 S                         S

RIFF#2. FAST! SLIGHT P.M. WHERE INDICATED.          FILL.
|-------------------------------------------|------|---||
|-------------------------------------------|------|---||
|------------(H)----------------------(H)---|------|---||
|------------3/4(H)---(H)-------------3/4(H)|---(H)|---||
|---------------4/5(H)4/5-111111111111---4/5|(H)4/5|4/5||
|222222222222------3/4----------------------|3/4---|2/3||
 ,,,,,,,,,,,,             ,,,,,,,,,,,,

RIFF#3. SLOW.
|------------------------------------||
|------------------------------------||
|------------------------------------||
|-------2-1---------------2-1---3----||
|---2-3-----2-1----2--2-3-----2------||
|0-----------------0-----------------||
              S                 S

TRANSITION A. (2 TIMES)
|---------------------------||
|---------------------------||
|---------------------------||
|---------------------------||
|2--------4--------3--------||
|0--------2--------1--------||
 S        S        S

Riff#4. (CHORUS). SLIGHTY FAST..P.M.
|---------------------------------------------------------------------||
|---------------------------------------------------------------------||
|---------------------------------------------------------------------||
|---------------------------------------------------------------------||
|----------------------------------------------------------------4(PH)||
|0-0-0-0-0-0-0-0-2-2-2-2-2-2-2-2-1-1-1-1-1-1-1-1-1-1-1-1-1-1-1-1------||
 . . . . . . . . . . . . . . . . . . . . . . . . . . . . . . . .

RIFF#5. FAST!!
|---------------------------------------||
|---------------------------------------||
|---------------------------------------||
|----------888666888-----------777555777||
|999777999-----------888666888----------||
|---------------------------------------||

Riff#6.FASTER!!!
                 (2 TIMES)
|--------------------------------------------
|--------------------------------------------
|--------------------------------------------
|------------8888666686------------7777555575
|999977779999----------888866668888----------
|--------------------------------------------
 ............          ............

Riff#6.CONTINUED..
                  (2 TIMES)
|--------------------------------------------||
|--------------------------------------------||
|--------------------------------------------||
|------------7777555575------------6666444464||
|888866668888----------777755557777----------||
|--------------------------------------------||
 ............          ............

TRANSITION B.
|---------||
|---------||
|---------||
|---------||
|2--------||
|0--------||
 S

Riff#7.  SLOW.
|--------------------------------------||
|--------------------------------------||
|--------------------------------------||
|---------------3-2----------------3-2-||
|2--------3-4-3-----6--------3-4-3-----||
|0------------------4------------------||
 S                  S

Riff#8. SLIGHT P.M. WHERE INDICATED..
|----------------------------------------------------||
|----------------------------------------------------||
|----------------------------------------------------||
|----------------------------------------------------||
|222222----------------------------------------------||
|------2222222211111111111144444444333333000000000000||
 ,,,,,,..............................................

Riff#9. FAST. ALL P.M.
|--------------------------------------------------||
|--------------------------------------------------||
|--------------------------------------------------||
|--------------------------------------------------||
|22222222111122222222------------------555555444444||
|--------------------333333222222222222------------||
 ..................................................

REPEAT #2.,3,

Riff#10.
|----------------------------------------||
|----------------------------------------||
|--------9-8----------------9-8---10~----||
|---9-10-----9-8-------9-10-----9--------||
|7------------------7--------------------||
|----------------------------------------||
               S                   S

REPEAT TRANSITION A.
REPEAT RIFF#4.
REPEAT TRANSITION A.

END RIFF: ONLY PLAYED ONCE.
|----------------------------------||
|----------------------------------||
|----------------------------------||
|2--------4--------3--------------2||
|X--------X--------X--------------X||
|0--------2--------1--------------0||
 S        S        S

END


comments
print report bad tab
4 comments total. Showing first comments.
0 reply
javier salazar wrote on May 12 2007, 03:12 am

el mejor grupo de death metal

0 reply
XRustInPeaceX wrote on May 22 2008, 09:04 pm

to be honest, i haven't gone over yet but im giving you a five star for the effort

0 reply
maiden4life! wrote on October 6 2008, 01:35 pm

its a good tab, using it to play the whole leprosy album, kick ass
it is, good tab 5 stars.

I want to post or [tab]
guest
You may want to rate the tab now too:
select rating
Please do not post tabs as comments. Select "correction" instead!