Oops, an error
Loading. Please wait.

Coffins Of The Unembalmed Dead Tab

290 views 3 this week
no commentswrite comment
1 2 3 4 5
please rate
add to favorites launch autoscroll
font size
0
reset
Autoscroll
+/-
esc
set tempo
stop
Contributor
Difficulty
intermediate
WARNING: You are trying to view
                                    content from Ultimate-Guitar.com
                                    in an unauthorized application,
                                    which is prohibited.

                                    Please use an official Ultimate
                                    Guitar Tabs application for iPhone,
                                    iPad or Android to access legitimate
                                    chords, guitar, bass, and drum tabs
                                    from Ultimate-Guitar.com database.

                                    Type "ultimate guitar tabs" in Apple
                                    App Store's or Android Market's
                                    search to find the application.
Death Breath - Coffins of the Unembalmed Dead
C# tuning (1.5 steps down)


INTRO RIFF 
|-------------------------------------------------------------------------|
|-------------------------------------------------------------------------|
|-------------------------------------------------------------------------|
|---2------------2-------------------2------------------------------------|
|---0--2--3------0--2--3-------------0--2--3--/3~~-2~~----------2b3r~~----|
|------0--1---------0--1--/4~~~---------0--1-----------/4~~-1~~-----------|
         HOLD                    
CTND (THIS IS RYTHM UNDER LEAD)
|-------------------------------------------------------------------------|
|-------------------------------------------------------------------------|
|---------------------------------------------------------------------2---|
|-2------------2------------------2-----------------------------------2---|
|-0--2--3------0--2--3------------0--2--3--/3~~-2~~----------2b3r~~---0---|
|----0--1---------0--1--/4~~~--------0--1-----------/4~~-1~~---------HOLD-|
       HOLD                    


0:15 LEAD
|-------------------------------------------------------------------------|
|------------------------16--16h17--16~-16--------------------------------|
|-------/14~-16p14-16h17---17-------------17-16h17-16-14------------------|
|-------------------------------------------------------------------------|
|-------------------------------------------------------------------------|
|-------------------------------------------------------------------------|
CTND
|-------------------------------------------------------------------------|
|------------------------16--16h17-16--16---------------------------------|
|-------/14~-16p14-16h17---17--------17--17--16tr17-16~~------------------|
|---------------------------------------------TRILL-----------------------|
|-------------------------------------------------------------------------|
|-------------------------------------------------------------------------|
CTND
|-------------------------------------------------------------------------|
|------------------------16--16h17--16~-16--------------------------------|
|-------/14~-16p14-16h17---17-------------17-16h17-16-14------------------|
|-------------------------------------------------------------------------|
|-------------------------------------------------------------------------|
|-------------------------------------------------------------------------|
CTND
|-------------------------------------------------------------------------|
|----------------16--16h17p16---16----TRILL-----TRILL---------------------|
|-------16--16h17--17--------17---17-16tr17-16~~14tr16-14~~~~~~~~---------|
|---------18-------------------------------------------HOLD---------------|
|-------------------------------------------------------------------------|
|-------------------------------------------------------------------------|


0:38 FIRST VERSE 2X 
(PICK SLIDE FIRST TIME ONLY)
|-------------------------------------------------------------------------|
|-------------------------------------------------------------------------|
|-PICK--------------------------------------------------------------------|
|--SLIDE----2--5--------------------2--5----------------------------------|
|-\\\\\\\---0--3--2--3--/3-2--------0--3--2-3--------333333222222---------|
|-\\\\\\\---------0--1-------4~~----------0-1--444444------------444444---|

0:57 VERSE RIFF 
  VARITAION
|-------------------------------------------------------------------------|
|-------------------------------------------------------------------------|
|-------------------------------------------------------------------------|
|-------------------------------------------------------------------------|
|-------000000333333------------------333222------------------------------|
|--------------------0000000011111111--------444444-----------------------|
CTND
|-------------------------------------------------------------------------|
|-------------------------------------------------------------------------|
|-------------------------------------------------------------------------|
|-------------------------------------------------------------------------|
|-000000333333-----------------333222-------------------------------------|
|-------------00011111-44444444------44444444-----------------------------|



1:06 
1ST CHORUS 2x
|-------------------------------------------------------------------------|
|-------------------------------------------------------------------------|
|-------------------------------------------------------------------------|
|-------------------------------------------------------------------------|
|-----2---------------------3p2--6---------------------3-3----------------|
|-----0-0-0-0-0-0-0-0-0-0-0----3-4-4-4-4-4-4-4-4-4-4-4-1-1----------------|
CTND   PMPMPMPMPMPMPMPMPMPM       PMPMPMPMPMPMPMPMPMPM
|-------------------------------------------------------------------------|
|-------------------------------------------------------------------------|
|------------------------------------------5------------------------------|
|---------------------------------------5--3------------------------------|
|-----2---------------------3p2---6--3--3---------------------------------|
|-----0-0-0-0-0-0-0-0-0-0-0----3--4--1------------------------------------|
       PMPMPMPMPMPMPMPMPMPM

1:23 CHORUS RIFF VARIATON
|-------------------------------------------------------------------------|
|-------------------------------------------------------------------------|
|-------------------------------8/7---------------------------------------|
|---------2------6/5------2-----6/5-----2------6/5----2-3-5/6-------------|
|---------2------6/5------2-------------2------6/5----2-3-5/6-------------|
|---------0-0000-4/3-0000-0-0000---0000-0-0000-4/3-00-0-1-3/4-------------|
CTND
|-------------------------------------------------------------------------|
|-------------------------------------------------------------------------|
|-------------------------------8/7-8/7-----------------------------------|
|---------2------6/5------2-----6/5-6/5------2------6/5------5-4----------|
|---------2------6/5------2------------------2------6/5----3-3-2-6--------|
|---------0-0000-4/3-0000-0-0000--------0000-0-0000-4/3-00-1-----4--------|




1:32 SECOND VERSE 
|-------------------------------------------------------------------------|
|-------------------------------------------------------------------------|
|-------------------------------------------------------------------------|
|-------2--5--------------------2--5--------------------------------------|
|-------0--3--2--3--/3-2--------0--3--2-3--------333333222222-------------|
|-------------0--1-------4~~----------0-1--444444------------444444-------|

1:42 VERSE RIFF 
    VARITAION
|-------------------------------------------------------------------------|
|-------------------------------------------------------------------------|
|-------------------------------------------------------------------------|
|-------------------------------------------------------------------------|
|-------000000333333------------------333222------------------------------|
|--------------------0000000011111111--------444444-----------------------|
CTND
|-------------------------------------------------------------------------|
|-------------------------------------------------------------------------|
|-------------------------------------------------------------------------|
|-------------------------------------------------------------------------|
|-------000000333333-----------------333222-------------------------------|
|-------------------00011111-44444444------44444444-----------------------|




1:50 
2ND CHORUS 2x
|-------------------------------------------------------------------------|
|-------------------------------------------------------------------------|
|-------------------------------------------------------------------------|
|-------------------------------------------------------------------------|
|-----2---------------------3p2--6---------------------3-3----------------|
|-----0-0-0-0-0-0-0-0-0-0-0----3-4-4-4-4-4-4-4-4-4-4-4-1-1----------------|
CTND   PMPMPMPMPMPMPMPMPMPM       PMPMPMPMPMPMPMPMPMPM
|-------------------------------------------------------------------------|
|-------------------------------------------------------------------------|
|------------------------------------------5------------------------------|
|---------------------------------------5--3------------------------------|
|-----2---------------------3p2---6--3--3---------------------------------|
|-----0-0-0-0-0-0-0-0-0-0-0----3--4--1------------------------------------|
       PMPMPMPMPMPMPMPMPMPM

2:08 CHORUS RIFF VARIATON
|-------------------------------------------------------------------------|
|-------------------------------------------------------------------------|
|-------------------------------8/7---------------------------------------|
|---------2------6/5------2-----6/5-----2------6/5----2-3-5/6-------------|
|---------2------6/5------2-------------2------6/5----2-3-5/6-------------|
|---------0-0000-4/3-0000-0-0000---0000-0-0000-4/3-00-0-1-3/4-------------|
CTND
|-------------------------------------------------------------------------|
|-------------------------------------------------------------------------|
|-------------------------------8/7-8/7-----------------------------------|
|---------2------6/5------2-----6/5-6/5------2------6/5------5-4----------|
|---------2------6/5------2------------------2------6/5----3-3-2-6--------|
|---------0-0000-4/3-0000-0-0000--------0000-0-0000-4/3-00-1-----4--------|



2:17 LEADING INTO SOLO/S
|-------------------------------------------------------------------------|
|-------------------------------------------------------------------------|
|---2---------------------------------------------------------------------|
|---2----------PICK-SLIDE-------------------------------------------------|
|---0---------\\\\\\\\\\\-------------------------------------------------|
|--HOLD---------\\\\\\\\\\------------------------------------------------|



BOTH SOLO'S RYTHM 2X
|-------------------------------------------------------------------------|
|-------------------------------------------------------------------------|
|-------------------------------------------------------------------------|
|-------2--5--------------------2--5--------------------------------------|
|-------0--3--2--3--/3-2--------0--3--2-3--------333333222222-------------|
|-------------0--1-------4~~----------0-1--444444------------444444-------|




2:21 FIRST SOLO
|--17------------/19gb20~---201917-201917-201917-201917-201927------------|
|--20b22-(20p17)----------------------------------------------------------|
|-------------------------------------------------------------------------|
|-------------------------------------------------------------------------|
|-------------------------------------------------------------------------|
|-------------------------------------------------------------------------|

|----201917---------------------------------------17h19h20-20p19p17-------|
|----------201817---------------------------171820-----------------20-----|
|----------------191716-16h17p16------161719------------------------------|
|-------------------------------19~~~~------------------------------------|
|-------------------------------------------------------------------------|
|-------------------------------------------------------------------------|

|-------------------------------------------------------------------------|
|-181818181818-171717171717-161616161616----------------------------------|
|---------------------------------------17~~~~~\\\\\SLIDE-----------------|
|---------------------------------------------------DOWN------------------|
|-------------------------------------------------------------------------|
|-------------------------------------------------------------------------|

2:30 SECOND SOLO
|-------------------------------------------------------------------------|
|---10-----(10)-----------------------------------------------------------|
|---12b14~~----12~~~~91012-910----9----7---5---4------5---5--7b9-7p5--5---|
|-----------------------------12---10---9---7---5---7---7-----------7-----|
|-------------------------------------------------------------------------|
|-------------------------------------------------------------------------|

|-------------------------------------------------------------------------|
|---------8--8h10-10~~~-13p12p10-13p12p10-13p12p10-13p12p10-13p12p10------|
|-----5/9--9--------------------------------------------------------------|
|-------------------------------------------------------------------------|
|-------------------------------------------------------------------------|
|-------------------------------------------------------------------------|

|-------------------------------------------------------------------------|
|--/15p13p12-15p13p12-15p13p12-15p13p12-15/17-17~~~~~~~~~-----------------|
|-------------------------------------------------------------------------|
|-------------------------------------------------------------------------|
|-------------------------------------------------------------------------|
|-------------------------------------------------------------------------|




2:39 3RD CHORUS
|-------------------------------------------------------------------------|
|-------------------------------------------------------------------------|
|-------------------------------8/7---------------------------------------|
|---------2------6/5------2-----6/5-----2------6/5----2-3-5/6-------------|
|---------2------6/5------2-------------2------6/5----2-3-5/6-------------|
|---------0-0000-4/3-0000-0-0000---0000-0-0000-4/3-00-0-1-3/4-------------|
CTND
|-------------------------------------------------------------------------|
|-------------------------------------------------------------------------|
|-------------------------------8/7-8/7-----------------------------------|
|---------2------6/5------2-----6/5-6/5------2------6/5----2-3-5-6--------|
|---------2------6/5------2------------------2------6/5----2-3-5-6--------|
|---------0-0000-4/3-0000-0-0000--------0000-0-0000-4/3-00-0-1-3-4--------|

2:49 VARIATION
|-------------------------------------------------------------------------|
|-------------------------------------------------------------------------|
|-------------------------------4/5---------------------------------------|
|---------2------6/5------2-----2/3-----2------6/5----2-3-5/6-------------|
|---------2------6/5------2-------------2------6/5----2-3-5/6-------------|
|---------0-0000-4/3-0000-0-0000---0000-0-0000-4/3-00-0-1-3/4-------------|
CTND
|-------------------------------------------------------------------------|
|-------------------------------------------------------------------------|
|-------------------------------8/7-8/7-----------------------------------|
|---------2------6/5------2-----6/5-6/5------2------6/5-------------------|
|---------2------6/5------2------------------2------6/5------3-2----------|
|---------0-0000-4/3-0000-0-0000--------0000-0-0000-4/3-00-1-----4--------|




2:58 REPRISE OF INTRO RIFF
|-------------------------------------------------------------------------|
|-------------------------------------------------------------------------|
|-------------------------------------------------------------------------|
|---2------------2-------------------2------------------------------------|
|---0--2--3------0--2--3-------------0--2--3--/3~~-2~~----------2b3r~~----|
|------0--1---------0--1--/4~~~---------0--1-----------/4~~-1~~-----------|

LEAD OVERTOP ABOVE RIFF
|-------------------------------------------------------------------------|
|------------------------16--16h17--16~-16--------------------------------|
|-------/14~-16p14-16h17---17-------------17-16h17-16-14------------------|
|-------------------------------------------------------------------------|
|-------------------------------------------------------------------------|
|-------------------------------------------------------------------------|
CTND
|-------------------------------------------------------------------------|
|------------------------16--16h17-16--16---------------------------------|
|-------/14~-16p14-16h17---17--------17--17--16tr17-16~~------------------|
|---------------------------------------------TRILL-----------------------|
|-------------------------------------------------------------------------|
|-------------------------------------------------------------------------|
CTND
|-------------------------------------------------------------------------|
|------------------------16--16h17--16~-16--------------------------------|
|-------/14~-16p14-16h17---17-------------17-16h17-16-14------------------|
|-------------------------------------------------------------------------|
|-------------------------------------------------------------------------|
|-------------------------------------------------------------------------|
CTND
|-------------------------------------------------------------------------|
|----------------16--16h17p16---16----------------------------------------|
|-------16--16h17--17--------17---17-16h17-16-14--------------------------|
|---------18--------------------------------------------------------------|
|-------------------------------------------------------------------------|
|-------------------------------------------------------------------------|


3:12 LAST ONE
|-------------------------------------------------------------------------|
|----------------16--16h17p16---16------------18~~\\\\\\\-----------------|
|-------16--16h17--17--------17---17-16h17-16------SLIDE------------------|
|---------18---------------------------------------DOWN-------------------|
|-------------------------------------------------------------------------|
|-------------------------------------------------------------------------|
              THIS HARMONIZES WITH ABOVE LEAD
|-------------------------------------------------------------------------|
|-RYTHM-GUITAR------------------------------------------------------------|
|-------------------------------------------------------------------------|
|---------------1---1h2--1--1-------3~~-END-------------------------------|
|-------2-0-2h3---3--------3--3-2h3---------------------------------------|
|-------------------------------------------------------------------------|

comments
We did not receive enough feedback on this tab! Please rate:
print report bad tab
1 2 3 4 5
I want to post or [tab]
guest
You may want to rate the tab now too:
select rating
Please do not post tabs as comments. Select "correction" instead!