Oops, an error
Loading. Please wait.

Bixby Canyon Bridge Tab

ver2
ver2

Whole song

More versions @911Tabs.com
2,356 views 3 this week
no commentswrite comment
1 2 3 4 5
excellent!
x 1
Autoscroll
+/-
esc
set tempo
stop
Contributor
Difficulty
intermediate
WARNING: You are trying to view
                                    content from Ultimate-Guitar.com
                                    in an unauthorized application,
                                    which is prohibited.

                                    Please use an official Ultimate
                                    Guitar Tabs application for iPhone,
                                    iPad or Android to access legitimate
                                    chords, guitar, bass, and drum tabs
                                    from Ultimate-Guitar.com database.

                                    Type "ultimate guitar tabs" in Apple
                                    App Store's or Android Market's
                                    search to find the application.
-------------------------------------------------------------------------------
                    Bixby Canyon Bridge - DEATH CAB FOR CUTIE
-------------------------------------------------------------------------------
Tabbed by: Terry Long
Email: mrmaestro1 'at' gmail.com

Tuning: Standard, but Drop D for Guitar 2
Tempo: 87 bpm
Time Signature: 6/8
Effects: All the clean parts have heavy reverb

The many guitar parts in this song are all done by only two guitars. In the
studio, they recorded multiple guitar parts dubbed over top others by the same
guitarist. Many parts are very similar and can thus be combined into one if
played live.
Ben Gibbard plays: Guitar 3 & 4
Chris Walla plays: Guitar 1 & 2


Guitar 1 & 2 strum the following chords using tremolo strumming and
an echo/delay effect. Play all chords with 1st finger as a bar chord.
The parenthesis mean very softly (they are barely picked).

   Guitar 1 (clean)
     Csus2            C
e|-----------------------------------------------|
B|--(13)-------------(13)----------------13------|
G|---------------------------------------12------|
D|--(12)-------------(12)----------------14------|
A|---15---------------15-----------------15------|
E|-----------------------------------------------|
 | Guitar 2 (clean)                              |
e|-----------------------------------------------|
B|--------------------13-----------------13------|
G|--------------------12-----------------12------|
D|--(12)--------------14-----------------14------|
A|---15---------------15-----------------15------|
D|-----------------------------------------------|
                      ^^             I descended a
                  Fade into.

  Guitar 1
   Am       C           Am       C           Am           C           Am
   H.       H.          H.       H.          H.           H.          H.
e|--------|(12)-------|--------|-----------|------------|-----------|--------|
B|--------|-13--------|--------|-13--------|------------|-13--------|--------|
G|-14-----|-12--------|-14-----|-12--------|-14---------|-12--------|-14-----|
D|-14-----|-14--------|-14-----|-14--------|-14---------|-14--------|-14-----|
A|-12-----|-15--------|-12-----|-15--------|-12---------|-15--------|-12-----|
E|--------|-----------|--------|-----------|------------|-----------|--------|
 | Guitar 2           |        |           |            |           |        |
 | H.     | H.        | H.     | H.        | H.         | H.        | H.     |
e|--------|-----------|--------|-----------|(12)--------|-----------|--------|
B|--------|-13--------|-13-----|-13--------|(13)--------|-13--------|--------|
G|-14-----|-12--------|-14-----|-12--------|-14---------|-12--------|-14-----|
D|-14-----|-14--------|-14-----|-14--------|-14---------|-14--------|-14-----|
A|-12-----|-15--------|-12-----|-15--------|-12---------|-15--------|-12-----|
D|--------|-----------|--------|-----------|------------|-----------|--------|
   dusty...  beneath... Bixby...  until I e- ventually...   at the  place...


      Repeat 3x
    Guitar 1 & 2
     Fmaj7                               C                 G
e||--13----------------------------------12----------------15----------------||
B||o-13----------------------------------13----------------12---------------o||
G||--14----------------------------------12----------------12----------------||
D||--15----------------------------------14----------------12----------------||
A||o------------------------------------------------------------------------o||
E||--------------------------------------------------------------------------||
 || Guitar 3 (clean)                                                         ||
 ||  E  E  E  E  E  E  E  E  E  E  E  E  E  E  E  E  E  E  E  E  E  E  E  E  ||
e||-----------0-----------------0--------------------------------------------||
B||o-------1-----1-----------1-----1--------------1-----------------0-------o||
G||-----2-----------2-----2-----------0--------0-----0-----------0-----0-----||
D||--3-----------------3-----------------2--2-----------2--0--0-----------0--||
A||o------------------------------------------------------------------------o||
E||--------------------------------------------------------------------------||
     died              Bare- foot        in       the   shal -    - low   creek

   Guitar 1 & 2
    Fmaj7
e|--13-----------------------------------------------------------------------|
B|--13-----------------------------------------------------------------------|
G|--14-----------------------------------------------------------------------|
D|--15-----------------------------------------------------------------------|
A|---------------------------------------------------------------------------|
E|---------------------------------------------------------------------------|
 | Guitar 3                                                                  |
 |  E  E  E  E  E  E  E  E  E  E  E  E  E  E  E  E  E  E  E  E  E  E  E  E   |
e|-----------0-----------------0-----------------0-----------------0---------|
B|--------1-----1-----------1-----1-----------1-----1-----------1-----1------|
G|-----2-----------2-----2-----------2-----2-----------2-----2-----------0---|
D|--3-----------------3-----------------3-----------------3------------------|
A|---------------------------------------------------------------------------|
E|---------------------------------------------------------------------------|

    Guitar 1
   C2       Am       C2       Am        C2          Am       C2       Am
   H.       H.       H.       H.        H.          H.       H.       H.
e|--------|--------|-12-----|-12------|-15--------|-12-----|--------|--------|
B|-13-----|-13-----|-13-----|-13------|-13--------|-13-----|-13-----|-13-----|
G|-12-----|-14-----|-12-----|-14------|-12--------|-14-----|-12-----|-14-----|
D|-12-----|-14-----|-12-----|-14------|-12--------|-14-----|-12-----|-14-----|
A|--------|--------|--------|---------|-----------|--------|--------|--------|
E|--------|--------|--------|---------|-----------|--------|--------|--------|
 |  Guitar 2       |        |         |           |        |        |        |
 | H.     | H.     | H.     | H.      | H.        | H.     | H.     | H.     |
e|--------|-12-----|-12-----|-12------|-15--------|-12-----|--------|--------|
B|-13-----|-13-----|-13-----|-13------|-13--------|-13-----|-13-----|-13-----|
G|-12-----|-14-----|-12-----|-14------|-12--------|-14-----|-12-----|-14-----|
D|-14-----|--------|-14-----|---------|-14--------|--------|-14-----|--------|
A|--------|(15)----|--------|(15)-----|-----------|(15)----|--------|(15)----|
D|--------|--------|--------|---------|-----------|--------|--------|--------|
    And ...became...   that...long ago...I cursed myself for...that...play like

      Repeat 3x
    Guitar 1 & 2
     Fmaj7                               C                 G
e||--13----------------------------------12----------------15----------------||
B||o-13----------------------------------13----------------12---------------o||
G||--14----------------------------------12----------------12----------------||
D||--15----------------------------------14----------------12----------------||
A||o------------------------------------------------------------------------o||
E||--------------------------------------------------------------------------||
 || Guitar 3                                                                 ||
 ||  E  E  E  E  E  E  E  E  E  E  E  E  E  E  E  E  E  E  E  E  E  E  E  E  ||
e||-----------0-----------------0--------------------------------------------||
B||o-------1-----1-----------1-----1--------------1-----------------0-------o||
G||-----2-----------2-----2-----------0--------0-----0-----------0-----0-----||
D||--3-----------------3-----------------2--2-----------2--0--0-----------0--||
A||o------------------------------------------------------------------------o||
E||--------------------------------------------------------------------------||
   mind                All   the      way         from  San     Francis - co

   Guitar 1 & 2
    Fmaj7
e|--13-----------------------------------------------------------------------|
B|--13-----------------------------------------------------------------------|
G|--14-----------------------------------------------------------------------|
D|--15-----------------------------------------------------------------------|
A|---------------------------------------------------------------------------|
E|---------------------------------------------------------------------------|
 | Guitar 3                                                                  |
 |  E  E  E  E  E  E  E  E  E  E  E  E  E  E  E  E  E  E  E  E  E  E  E  E   |
e|-----------0-----------------0-----------------0-----------------0---------|
B|--------1-----1-----------1-----1-----------1-----1-----------1-----1------|
G|-----2-----------2-----2-----------2-----2-----------2-----2-----------2---|
D|--3-----------------3-----------------3-----------------3------------------|
A|---------------------------------------------------------------------------|
E|---------------------------------------------------------------------------|

Guitar 3 (overdrive)

    Repeat 3x (Guitar 1 (overdrive) joins 3rd time)
      F                                  C                 G
      E  E  E  E (Q)   E  E  E  E (Q)    E  E  E  E (Q)    E  E  E  E (Q)
e||---1--1--1--1-----|-1--1--1--1------|-0--0--0--0------|-3--3--3--3-------||
B||o--1--1--1--1-----|-1--1--1--1------|-1--1--1--1------|-3--3--3--3------o||
G||---2--2--2--2-----|-2--2--2--2------|-0--0--0--0------|-4--4--4--4-------||
D||---3--3--3--3-----|-3--3--3--3------|-2--2--2--2------|-5--5--5--5-------||
A||o--3--3--3--3-----|-3--3--3--3------|-3--3--3--3------|-5--5--5--5------o||
E||------------------|-----------------|-----------------|------------------||
                            And I    want         to   know         my   fate
  Guitar 1 & 3
    F                                  Am                E
    E  E  E  E (Q)   E  E  E  E (Q)    E  E  E  E (Q)    E  E  E  E (Q)
e|--1--1--1--1-----|-1--1--1--1------|-0--0--0--0------|-0--0--0--0----------|
B|--1--1--1--1-----|-1--1--1--1------|-1--1--1--1------|-0--0--0--0----------|
G|--2--2--2--2-----|-2--2--2--2------|-2--2--2--2------|-1--1--1--1----------|
D|--3--3--3--3-----|-3--3--3--3------|-2--2--2--2------|-2--2--2--2----------|
A|--3--3--3--3-----|-3--3--3--3------|-0--0--0--0------|-2--2--2--2----------|
E|-----------------|-----------------|-----------------|---------------------|
                              A -  wake...
    Repeat 2x
    Guitar 1, 2, & 3 (all overdrive)
      F                                  C                 G
      E  E  E  E (Q)   E  E  E  E (Q)    E  E  E  E (Q)    E  E  E  E (Q)
e||---1--1--1--1-----|-1--1--1--1------|-0--0--0--0------|-3--3--3--3-------||
B||o--1--1--1--1-----|-1--1--1--1------|-1--1--1--1------|-3--3--3--3------o||
G||---2--2--2--2-----|-2--2--2--2------|-0--0--0--0------|-4--4--4--4-------||
D||---3--3--3--3-----|-3--3--3--3------|-2--2--2--2------|-5--5--5--5-------||
A||o--3--3--3--3-----|-3--3--3--3------|-3--3--3--3------|-5--5--5--5------o||
E||------------------|-----------------|-----------------|------------------||
                                When  ev -       ery - one          you   meet
    F                                   C                 G
    E  E  E  E (Q)    E  E  E  E (Q)    E  E  E  E (Q)    E  E  E  E (E) E
e|--1--1--1--1------|-1--1--1--1------|-0--0--0--0------|-3--3--3--3--------|
B|--1--1--1--1------|-1--1--1--1------|-1--1--1--1------|-3--3--3--3-----0--|
G|--2--2--2--2------|-2--2--2--2------|-0--0--0--0------|-4--4--4--4--------|
D|--3--3--3--3------|-3--3--3--3------|-2--2--2--2------|-5--5--5--5--------|
A|--3--3--3--3------|-3--3--3--3------|-3--3--3--3------|-5--5--5--5--------|
E|------------------|-----------------|-----------------|-------------------|
                            And you wonder    if you're missing    your dream
                                                                         ^
                                                    Guitar 2 doesn't play this

   Guitar 1 (clean)
    D7                                   F2maj7
    E  E  E  Q.        (Q. +Q)      E    E  E  E  Q.       (Q. +Q)      E
e|-----------2-------|-(2)-------------|----------0------|-(0)---------------|
B|-----1--1----------|-(3)----------1--|----1--1---------|-(1)----------0----|
G|--2----------------|-(2)-------------|-0---------------|-(0)---------------|
D|-------------------|-(0)-------------|-----------------|-------------------|
A|-------------------|-----------------|-----------------|-------------------|
E|-------------------|-----------------|-----------------|-------------------|
 |                   |                 |                 |                   |
 | Guitar 2 (overdrive)                |                 |                   |
 |  H.               | (Q. +Q)      E  | Q     E  Q.     | (H.)              |
e|--2----------------|-(2)-------------|-----------------|-------------------|
B|--3----------------|-(3)-------------|-----------------|-------------------|
G|--2----------------|-(2)-------------|-----------------|-------------------|
D|--0----------------|-(0)-------------|-----------------|-------------------|
A|--0----------------|-(0)-------------|-------0--3------|-(3)---------------|
D|--0----------------|-(0)----------2--|-3---------------|-(3)---------------|
 |                   |                 |                 |                   |
 | Guitar 3 (clean)  |                 |                 |                   |
 | E  E  E  Q.       | (Q. +Q)      E  | E  E  E  Q.     | (Q. +Q)      E    |
e|-----------2-------|-(2)-------------|----------0------|-(0)---------------|
B|-----1--1----------|-(1)----------1--|-------1---------|-(1)----------1----|
G|--2----------------|-(2)-------------|----2------------|-(2)---------------|
D|-------------------|-----------------|-3---------------|-(3)---------------|
A|-------------------|-----------------|-----------------|-------------------|
E|-------------------|-----------------|-----------------|-------------------|
                            You can't see                           a   dream

   Guitar 1
    D7                                   Fmaj7
    E  E  E  Q.        (Q. +Q)      E    E  E  E  Q.       (Q. +Q)      E
e|-----------2-------|-(2)-------------|----------0------|-(0)---------------|
B|--------3----------|-(3)----------1--|-------1---------|-(1)----------0----|
G|-----2-------------|-(2)-------------|-0--2------------|-(2)---------------|
D|--0----------------|-(0)-------------|-----------------|-------------------|
A|-------------------|-----------------|-----------------|-------------------|
E|-------------------|-----------------|-----------------|-------------------|
 |                   |                 |                 |                   |
 | Guitar 2          |                 |                 |                   |
 |  H.               | (Q. +E)   E  E  | Q.       Q.     | (Q.)    Q.        |
e|--2----------------|-(2)-------------|-----------------|-------------------|
B|--3----------------|-(3)-------------|-----------------|-------------------|
G|--2----------------|-(2)-------------|-----------------|-------------------|
D|--0----------------|-(0)-------------|-----------------|-------------------|
A|--0----------------|-(0)-------------|----------3------|-(3)-----3---------|
D|--0----------------|-(0)-------2--3--|-5-------(5)-----|-(5)---------------|
 |                   |                 |                 |                   |
 | Guitar 3          |                 |                 |                   |
 |  E  E  E  Q.      | (Q. +Q)      E  | E  E  E  Q.     | (Q. +Q)      E    |
e|-----------2-------|-(2)-------------|----------0------|-(0)---------------|
B|--------1----------|-(1)----------1--|-------1---------|-(1)----------1----|
G|-----2-------------|-(2)-------------|----2------------|-(2)---------------|
D|--0----------------|-(0)-------------|-3---------------|-(3)---------------|
A|-------------------|-----------------|-----------------|-------------------|
E|-------------------|-----------------|-----------------|-------------------|
                            You can't see                          a    dream

   Guitar 1
    D7                                   Fmaj7
    E  E  E  Q.        (Q. +Q)      E    E  E  E  Q.       (Q.     Q    S S
e|-----------2-------|-(2)-------------|----------0------|-(0)---------------|
B|--------1----------|-(3)----------1--|-------1---------|-(1)-----0----1p0--|
G|-----2-------------|-(2)-------------|-0--2------------|-(2)---------------|
D|--0----------------|-(0)-------------|-----------------|-------------------|
A|-------------------|-----------------|-----------------|-------------------|
E|-------------------|-----------------|-----------------|-------------------|
 |                   |                 |                 |                   |
 | Guitar 2          |                 |                 |                   |
 |  SSSSS(S)(Q.)     |  SSSSS(S) (Q.)  | H.              |  Q.     Q.        |
e|---0-0----(0)------|---0-0-----------|-----------------|-------------------|
B|--3-3-3---(3)------|--3-3-3----------|-----------------|---------0---------|
G|--2-------(2)------|-(2)-------------|-----------------|-------------------|
D|--0-------(0)------|-(0)-------------|-----------------|-------------------|
A|--0-------(0)------|-(0)-------------|-3---------------|-(3)---------------|
D|--0-------(0)------|-(0)-------------|-----------------|--3----------------|
 |                   |                 |                 |                   |
 | Guitar 3          |                 |                 |                   |
 |  E  E  E  Q.      | (Q. +Q)      E  | E  E  E  Q.     | (Q. +Q)      E    |
e|-----------2-------|-(2)-------------|----------0------|-(0)---------------|
B|--------1----------|-(1)----------1--|-------1---------|-(1)----------1----|
G|-----2-------------|-(2)-------------|----2------------|-(2)---------------|
D|--0----------------|-(0)-------------|-3---------------|-(3)---------------|
A|-------------------|-----------------|-----------------|-------------------|
E|-------------------|-----------------|-----------------|-------------------|

   Guitar 1
       D7                                   Fmaj7
    E  E  E  Q.        (Q. +Q)      E    E  E  E  Q.       (Q.)    (Q.)
e|-----------2-------|-(2)-------------|----------0------|-(0)---------------|
B|--------1----------|-(3)----------1--|-------1---------|-(1)---------------|
G|--2--2-------------|-(2)-------------|-0--2------------|-(2)---------------|
D|-------------------|-(0)-------------|-----------------|-------------------|
A|-------------------|-----------------|-----------------|-------------------|
E|-------------------|-----------------|-----------------|-------------------|
 |                   |                 |                 |                   |
 | Guitar 2          |                 |                 |                   |
 |  SSSSS(S) (Q.)    |  SSSSS(S) (Q.)  | H.              |  Q.      Q.       |
e|-------------------|-----------------|-----------------|--1-------0--------|
B|---0-0-------------|---0-0-----------|-----------------|--1-------1--------|
G|--2-2-2------------|--2-2-2----------|-----------------|--2----------------|
D|--0----------------|-(0)-------------|-----------------|--3----------------|
A|--0----------------|-(0)-------------|-----------------|-------------------|
D|--0----------------|-(0)-------------|-3---------------|-------------------|
 |                   |                 |                 |                   |
 | Guitar 3          |                 |                 |                   |
 |  E  E  E  Q.      | (Q. +Q)      E  | E  E  E  Q.     | (Q.)    (Q.)      |
e|-----------2-------|-(2)-------------|----------0------|-(0)---------------|
B|--------1----------|-(1)----------1--|-------1---------|-(1)---------------|
G|-----2-------------|-(2)-------------|----2------------|-(2)---------------|
D|--0----------------|-(0)-------------|-3---------------|-(3)---------------|
A|-------------------|-----------------|-----------------|-------------------|
E|-------------------|-----------------|-----------------|-------------------|

    Guitar 1
     D                                     Fadd9
     Q.      Q.         Q.      Q.         Q.     Q.         Q.      Q.
e||--2-------2-------|--2-------2-------|--3------3-------|--3-------3------||
B||o-3-------3-------|--3-------3-------|--1------1-------|--1-------1-----o||
G||--2-------2-------|--2-------2-------|--2------2-------|--2-------2------||
D||--0-------0-------|--0-------0-------|--3------3-------|--3-------3------||
A||o-----------------|------------------|-----------------|----------------o||
E||------------------|------------------|-----------------|-----------------||
 ||                  |                  |                 |                 ||
 || Guitar 3 & 4 (using overdrive with EBow)              |                 ||
 ||  Q.      Q.      |  H.              | (H.)            | (H.)            ||
e||------------------|------------------|-----------------|-----------------||
B||o-----------------|------------------|-----------------|----------------o||
G||------------------|------------------|-----------------|-----------------||
D||------------------|------------------|-----------------|-----------------||
A||o-9-------10------|-/15--------------|-(15)------------|-(15)--------\--o||
E||------------------|------------------|-----------------|-----------------||

   Guitar 1
    D                                     Fadd9
   (H.)               (H.)               (H.)               Q.   (S)S S  S(E)
e|------------------|------------------|-----------------|-------------------|
B|------------------|------------------|-----------------|-/10------8h10p8---|
G|------------------|------------------|-----------------|-------------------|
D|------------------|------------------|-----------------|-------------------|
A|------------------|------------------|-----------------|-------------------|
E|------------------|------------------|-----------------|-------------------|
 |                  |                  |                 |                   |
 | Guitar 2         |                  |                 |                   |
 |  Q.      Q.      |  Q.      Q.      |  Q.     Q.      |  Q.      Q.       |
e|--2-------2-------|--2-------2-------|--3------3-------|--3-------3--------|
B|--3-------3-------|--3-------3-------|--1------1-------|--1-------1--------|
G|--2-------2-------|--2-------2-------|--2------2-------|--2-------2--------|
D|--0-------0-------|--0-------0-------|--3------3-------|--3-------3--------|
A|------------------|------------------|-----------------|-------------------|
D|------------------|------------------|-----------------|-------------------|
 |                  |                  |                 |                   |
 | Guitar 3 (EBow)  |                  |                 |                   |
 |  Q.      Q.      |  H.              | (H.)            | (H.)              |
e|------------------|------------------|-----------------|-------------------|
B|------------------|------------------|-----------------|-------------------|
G|------------------|------------------|-----------------|-------------------|
D|------------------|------------------|-----------------|-------------------|
A|--9-------10------|-/15--------------|-(15)------------|-(15)-----------\--|
E|------------------|------------------|-----------------|-------------------|
 |                  |                  |                 |                   |
 | Guitar 4 (EBow)  |                  |                 |                   |
 |  Q.      Q.      |  H.              |  H.             | (H.)              |
e|------------------|------------------|-----------------|-------------------|
B|------------------|------------------|-----------------|-------------------|
G|------------------|------------------|-----------------|-------------------|
D|------------------|------------------|-----------------|-------------------|
A|--9-------10------|-/15------------\-|--8------------\-|--3-------------/--|
E|------------------|------------------|-----------------|-------------------|

   Guitar 1
    D                                     Fadd9
    Q.      Q.         H.                (H.)              (H.)
e|------------------|------------------|-----------------|-----------------|
B|------------------|------------------|-----------------|-----------------|
G|------------------|------------------|-----------------|-----------------|
D|------------------|------------------|-----------------|-----------------|
A|--9-------10------|-/15--------------|-(15)------------|-(15)---------\--|
E|------------------|------------------|-----------------|-----------------|
 |                  |                  |                 |                 |
 | Guitar 2         |                  |                 |                 |
 |  Q.      Q.      |  Q.      Q.      |  Q.     Q.      |  Q.      Q.     |
e|--2-------2-------|--2-------2-------|--3------3-------|--3-------3------|
B|--3-------3-------|--3-------3-------|--1------1-------|--1-------1------|
G|--2-------2-------|--2-------2-------|--2------2-------|--2-------2------|
D|--0-------0-------|--0-------0-------|--3------3-------|--3-------3------|
A|------------------|------------------|-----------------|-----------------|
D|------------------|------------------|-----------------|-----------------|

Repeat 4x below
    Guitar 2
     D                                     Fadd9
     Q.      Q.         Q.      Q.         Q.     Q.         Q.      Q.
e||--2-------2-------|--2-------2-------|--3------3-------|--3-------3------||
B||o-3-------3-------|--3-------3-------|--1------1-------|--1-------1-----o||
G||--2-------2-------|--2-------2-------|--2------2-------|--2-------2------||
D||--0-------0-------|--0-------0-------|--3------3-------|--3-------3------||
A||o-----------------|------------------|-----------------|----------------o||
D||------------------|------------------|-----------------|-----------------||
 ||                  |                  |                 |                 ||
 || Guitar 3 (EBow)  |                  |                 |                 ||
 ||  Q.      Q.      |  H.              | (H.)            | (H.)            ||
e||------------------|------------------|-----------------|-----------------||
B||o-----------------|------------------|-----------------|----------------o||
G||------------------|------------------|-----------------|-----------------||
D||------------------|------------------|-----------------|-----------------||
A||o-9-------10------|-/15--------------|-(15)------------|-(15)---------\-o||
E||------------------|------------------|-----------------|-----------------||
 ||                  |                  |                 |                 ||
 || Guitar 4 (EBow)  |                  |                 |                 ||
 ||  Q.      Q.      |  H.              |  H.             | (H.)            ||
e||------------------|------------------|-----------------|-----------------||
B||o-----------------|------------------|-----------------|----------------o||
G||------------------|------------------|-----------------|-----------------||
D||------------------|------------------|-----------------|-----------------||
A||o-9-------10------|-/15------------\-|--8------------\-|--3----------/--o||
E||------------------|------------------|-----------------|-----------------||

Repeat 2x below
    Guitar 2
     D                                     Fadd9
     Q.      Q.         Q.      Q.         Q.     Q.         Q.      Q.
e||--2-------2-------|--2-------2-------|--3------3-------|--3-------3-------|
B||o-3-------3-------|--3-------3-------|--1------1-------|--1-------1-------|
G||--2-------2-------|--2-------2-------|--2------2-------|--2-------2-------|
D||--0-------0-------|--0-------0-------|--3------3-------|--3-------3-------|
A||o-----------------|------------------|-----------------|------------------|
D||------------------|------------------|-----------------|------------------|
 ||                  |                  |                 |                  |
 || Guitar 3 (EBow)  |                  |                 |                  |
 ||  Q.      Q.      |  H.              | (H.)            | (H.)             |
e||------------------|------------------|-----------------|------------------|
B||o-----------------|------------------|-----------------|------------------|
G||------------------|------------------|-----------------|------------------|
D||------------------|------------------|-----------------|------------------|
A||o-9-------10------|-/15--------------|-(15)------------|-(15)--------\----|
E||------------------|------------------|-----------------|------------------|
 ||                  |                  |                 |                  |
 || Guitar 4 (no EBow)                  |                 |                  |
 ||  Q.      Q.      |  Q.      Q    E  |  Q.     Q.      |  E E  E  E E  E  |
e||------------------|------------------|-----------------|------------------|
B||o-----------------|------------------|-----------------|------------------|
G||------------------|------------------|-----------------|--9b10r9--9b10r9--|
D||------------------|------------------|---------10------|------------------|
A||o-9-------10------|-/15--\--/10---9--|--8--------------|------------------|
E||------------------|------------------|-----------------|------------------|

   Guitar 2
    D                                     Fadd9
    Q.      Q.         Q.      Q.         Q.     Q.         Q.      Q.
e|--2-------2-------|--2-------2-------|--3------3-------|--3-------3-------||
B|--3-------3-------|--3-------3-------|--1------1-------|--1-------1------o||
G|--2-------2-------|--2-------2-------|--2------2-------|--2-------2-------||
D|--0-------0-------|--0-------0-------|--3------3-------|--3-------3-------||
A|------------------|------------------|-----------------|-----------------o||
D|------------------|------------------|-----------------|------------------||
 |                  |                  |                 |                  ||
 | Guitar 3         |                  |                 |                  ||
 |  Q.      Q.      |  H.              | (H.)            | (H.)             ||
e|------------------|------------------|-----------------|------------------||
B|------------------|------------------|-----------------|-----------------o||
G|------------------|------------------|-----------------|------------------||
D|------------------|------------------|-----------------|------------------||
A|--9-------10------|-/15--------------|-(15)------------|-(15)--------\---o||
E|------------------|------------------|-----------------|------------------||
 |                  |                  |                 |                  ||
 | Guitar 4         |                  |                 |                  ||
 |  Q.      Q.      |  Q.      Q    E  |  Q.     Q.      |  E E  E  Q.      ||
e|------------------|------------------|-----------------|------------------||
B|------------------|------------------|-----------------|-----------------o||
G|------------------|------------------|-----------------|--9b10r9--7b------||
D|------------------|------------------|---------10------|------------------||
A|--9-------10------|-/15--\--/10---9--|--8--------------|-----------------o||
E|------------------|------------------|-----------------|------------------||
                                                                    ^^^^^
                                                       On 6th time, play 5b6r5

Repeat 4x below
     D                                     Fadd9
 || Guitar 1         |                  |                 |                  |
 ||  Q.      Q.      |  Q.      Q.      |  Q.     Q.      |  Q.      Q.      |
e||--2-------2-------|--2-------2-------|--3------3-------|--3-------3-------|
B||o-3-------3-------|--3-------3-------|--1------1-------|--1-------1-------|
G||--2-------2-------|--2-------2-------|--2------2-------|--2-------2-------|
D||--0-------0-------|--0-------0-------|--3------3-------|--3-------3-------|
A||o-----------------|------------------|-----------------|------------------|
E||------------------|------------------|-----------------|------------------|
 ||                  |                  |                 |                  |
 || Guitar 2 & 4     |                  |                 |                  |
 ||  Q.      Q.      |  Q.      Q    E  |  Q.     Q.      |  E E  E  E E  E  |
e||------------------|------------------|-----------------|------------------|
B||o-----------------|------------------|-----------------|------------------|
G||------------------|------------------|-----------------|--9b10r9--9b10r9--|
D||------------------|------------------|---------10------|------------------|
A||o-9-------10------|-/15--\--/10---9--|--8--------------|------------------|
E||------------------|------------------|-----------------|------------------|

     D                                     Fadd9
 | Guitar 1         |                  |                 |                  ||
 |  Q.      Q.      |  Q.      Q.      |  Q.     Q.      |  Q.      Q.      ||
e|--2-------2-------|--2-------2-------|--3------3-------|--3-------3-------||
B|--3-------3-------|--3-------3-------|--1------1-------|--1-------1------o||
G|--2-------2-------|--2-------2-------|--2------2-------|--2-------2-------||
D|--0-------0-------|--0-------0-------|--3------3-------|--3-------3-------||
A|------------------|------------------|-----------------|-----------------o||
E|------------------|------------------|-----------------|------------------||
 |                  |                  |                 |                  ||
 | Guitar 2 & 4     |                  |                 |                  ||
 |  Q.      Q.      |  Q.      Q    E  |  Q.     Q.      |  E E  E  Q.      ||
e|------------------|------------------|-----------------|------------------||
B|------------------|------------------|-----------------|-----------------o||
G|------------------|------------------|-----------------|--9b10r9--7b------||
D|------------------|------------------|---------10------|------------------||
A|--9-------10------|-/15--\--/10---9--|--8--------------|-----------------o||
E|------------------|------------------|-----------------|------------------||
                                                                    ^^^^^
                                                          4th time play 9b10r9

   Guitar 3
    E E  E  E E  E     E E  E  E E  E     H. . . .
e|------------------|------------------|-------------------------------------|
B|------------------|------------------|-------------------------------------|
G|--9b10r9--9b10r9--|--9b10r9--9b10r9--|-b10----------------r9--b10----------|
D|------------------|------------------|-------------------------------------|
A|------------------|------------------|-------------------------------------|
E|------------------|------------------|-------------------------------------|

Guitar feedback... Continues for awhile...


| /  slide up
| \  slide down
| h  hammer-on
| p  pull-off
| b  bend
| r  release
| (#) Tied note (don't re-pick)
| (X) Rest
===============================================================================
comments
We did not receive enough feedback on this tab! Please rate:
print report bad tab
1 2 3 4 5
I want to post or [tab]
guest
You may want to rate the tab now too:
select rating
Please do not post tabs as comments. Select "correction" instead!