Oops, an error
Loading. Please wait.

Crooked Teeth Tab

ver3
ver3

Solo

Whole song

Interactive

More versions @911Tabs.com
37,162 views 27 this week
8 commentsread comments
1 2 3 4 5
excellent!
x 11
Autoscroll
+/-
esc
set tempo
stop
Contributor
Difficulty
novice
Hey! There's an official Ultimate Guitar app which is ideal
for learning songs when you're away from computer. Get the app
WARNING: You are trying to view
                                    content from Ultimate-Guitar.com
                                    in an unauthorized application,
                                    which is prohibited.

                                    Please use an official Ultimate
                                    Guitar Tabs application for iPhone,
                                    iPad or Android to access legitimate
                                    chords, guitar, bass, and drum tabs
                                    from Ultimate-Guitar.com database.

                                    Type "ultimate guitar tabs" in Apple
                                    App Store's or Android Market's
                                    search to find the application.
-------------------------------------------------------------------------------
                   CROOKED TEETH(acoustic) - Death Cab For Cutie
-------------------------------------------------------------------------------
Tabbed by:azimuth457
Email:azimuth457@gmail.com

Tuning: Standard

So I tabbed this song a long time ago..
never got around to putting it up
but I'm sure some people will be happy about
how accurate this tab is.
there is a video on youtube with ben and chris
playing live acoustic, and if you watch it, 
you will know this tab is right.
By the way, that means that if the recording 
doesn't sound the exact same, it doesn't mean
the tab is wrong, it will only sound the same as 
the live acoustic version.

it can be watched here: http://youtube.com/watch?v=wrxxZDMJ-B4
or here: http://youtube.com/watch?v=yzYNLGo7CgY

Guitar 1: Ben Gibbard - Capo 2
Guitar 2: Chris Walla - Capo 2

Intro/Verse:
  Gtr I
e|--------------------------------------|
B|--------------------------------------|
G|----7-77----6-66----9--9-9-----4-44---|
D|----5-55----x-xx----x--x-x-----x-xx---|
A|--777-77----7-77----10-1010----5-55---|
E|----------555-55--888--8-8---333-33---|
 |Gtr II
e|--------------------------------------|
B|--------------------------------------|
G|--------------------------------------|
D|--------------------------------------|
A|--------------------------------------|
E|--------------------------------------|

  Gtr I
e|--------------------------------------|
B|--------------------------------------|
G|----7-77----6-66----9--9-9-----4-44---|
D|----5-55----x-xx----x--x-x-----x-xx---|
A|--777-77----7-77----10-1010----5-55---|
E|----------555-55--888--8-8---333-33---|
 |Gtr II
e|--------------------------------------|
B|--------------------------------------|
G|------------(5)-----------------------|
D|------------(5)-----------------------|
A|--------------------------------------|
E|--------------------------------------|

  Gtr I
e|--------------------------------------|
B|--------------------------------------|
G|----7-77----6-66----9--9-9-----4-44---|
D|----5-55----x-xx----x--x-x-----x-xx---|
A|--777-77----7-77----10-1010----5-55---|
E|----------555-55--888--8-8---333-33---|
 |Gtr II
e|--------------------------------------|
B|--------------------------------------|
G|--------------------------------------|
D|--------------------------------------|
A|--------------------------------------|
E|--------------------------------------|

  Gtr I
e|--------------------------------------|
B|--------------------------------------|
G|----7-77----6-66----9--9-9-----4-44---|
D|----5-55----x-xx----x--x-x-----x-xx---|
A|--777-77----7-77----10-1010----5-55---|
E|----------555-55--888--8-8---333-33---|
 |Gtr II
e|--------------------------------------|
B|--------------------------------------|
G|--------------------------------------|
D|--------------------------------------|
A|--------------------------------------|
E|--------------------------------------|

  Gtr I
e|--------------------------------------|
B|--------------------------------------|
G|----7-77----6-66----9--9-9-----4-44---|
D|----5-55----x-xx----x--x-x-----x-xx---|
A|--777-77----7-77----10-1010----5-55---|
E|----------555-55--888--8-8---333-33---|
 |Gtr II
e|--------------------------------------|
B|--------------------------------------|
G|--------------------------------------|
D|--------------2-1-0-0-----------------|
A|------2---0-0-------------------------|
E|--0-0---3--------------2-3-3-3--2-1---|

  Gtr I
e|--------------------------------------|
B|--------------------------------------|
G|----7-77----6-66----9--9-9-----4-44---|
D|----5-55----x-xx----x--x-x-----x-xx---|
A|--777-77----7-77----10-1010----5-55---|
E|----------555-55--888--8-8---333-33---|
 |Gtr II
e|--------------------------------------|
B|--------------------------------------|
G|--------------------------------------|
D|--------------2-1-0-0-----------------|
A|------2---0-0-------------------------|
E|--0-0---3--------------2-3-3-3--2-1---|

  Gtr I
e|--------------------------------------|
B|--------------------------------------|
G|----7-77----6-66----9--9-9-----4-44---|
D|----5-55----x-xx----x--x-x-----x-xx---|
A|--777-77----7-77----10-1010----5-55---|
E|----------555-55--888--8-8---333-33---|
 |Gtr II
e|--------------------------------------|
B|--------------------------------------|
G|--------------------------------------|
D|--------------2-1-0-0-----------------|
A|------2---0-0-------------------------|
E|--0-0---3--------------2-3-3-3--2-1---|

  Gtr I
e|--------------------------------------|
B|--------------------------------------|
G|----7-77----6-66----9--9-9-----4-44---|
D|----5-55----x-xx----x--x-x-----x-xx---|
A|--777-77----7-77----10-1010----5-55---|
E|----------555-55--888--8-8---333-33---|
 |Gtr II
e|---------------------------------3~---|
B|---------------------------------3~---|
G|---------------------------------0~---|
D|---------------------------------0~---|
A|------2---0-0-0---3-3--2-0-------2~---|
E|--0-0---3-------3------------3-3-3~---|


Pre-Chorus:
  Gtr I
e|----0-00----0-00----0-00----2--22-----|
B|----0-00----0-00----2-22----4--44-----|
G|----1-11----1-11----0-00----2--22-----|
D|----2-22----0-00----2-22--444--44-----|
A|----2-22----2-22--000-00--222--22-----|
E|--000-00--000-00----------------------|
 |Gtr II
e|--------------------------------------|
B|--------------------------------------|
G|----9-------11------12------4-/--/--/-|
D|----x-------x-------x-------x-/--/--/-|
A|----7-------9-------10------2-/--/--/-|
E|--------------------------------------|

  Gtr I
e|----0-00----0-00----0-00----2--22-----|
B|----0-00----0-00----2-22----4--44-----|
G|----1-11----1-11----0-00----2--22-----|
D|----2-22----0-00----2-22--444--44-----|
A|----2-22----2-22--000-00--222--22-----|
E|--000-00--000-00----------------------|
 |Gtr II
e|--------------------------------------|
B|--------------------------------------|
G|-/-/9-------11------12------6-6-6-66--|
D|-/-/x-------x-------x-------x-x-x-xx--|
A|-/-/7-------9-------10------4-4-4-44--|
E|--------------------------------------|


Chorus:
  Gtr I
e|---x-x-xxx--x-x-xxx--x-x-xxx---|
B|---3-3-333--3-3-333--3-3-333---|
G|---0-0-000--0-0-000--2-2-222---|
D|---x-x-xxx--0-0-000--0-0-000---|
A|---3-3-333--x-x-xxx--x-x-xxx---|
E|---x-x-xxx--3-3-333--x-x-xxx---|
 |Gtr II
e|---------------------x-x-xxx---|
B|---------------------3-3-333---|
G|---------------------2-2-222---|
D|-------0-------------0-0-000---|
A|---3-3-2-0----0-2----x-x-xxx---|
E|------------3-----3--x-x-xxx---|

  Gtr I
e|---x-x-xxx--x-x-xxx--x-x-xxx---|
B|---3-3-333--3-3-333--3-3-333---|
G|---0-0-000--0-0-000--2-2-222---|
D|---x-x-xxx--0-0-000--0-0-000---|
A|---3-3-333--x-x-xxx--x-x-xxx---|
E|---x-x-xxx--3-3-333--x-x-xxx---|
 |Gtr II
e|---------------------x-x-xxx---|
B|---------------------3-3-333---|
G|---------------------2-2-222---|
D|-------0-------------0-0-000---|
A|---3-3-2-0----0-2----x-x-xxx---|
E|------------3-----3--x-x-xxx---|

  Gtr I
e|---x-x-xxx--x-x-xxx--x-x-xxx---|
B|---3-3-333--3-3-333--3-3-333---|
G|---0-0-000--0-0-000--2-2-222---|
D|---x-x-xxx--0-0-000--0-0-000---|
A|---3-3-333--x-x-xxx--x-x-xxx---|
E|---x-x-xxx--3-3-333--x-x-xxx---|
 |Gtr II
e|---------------------x-x-xxx---|
B|---------------------3-3-333---|
G|---------------------2-2-222---|
D|-------0-------------0-0-000---|
A|---3-3-2-0----0-2----x-x-xxx---|
E|------------3-----3--x-x-xxx---|

  Gtr I
e|---x-x-xxx--x-x-xxx--x-x-xxxxxx---|
B|---3-3-333--3-3-333--3-3-333333---|
G|---0-0-000--0-0-000--2-2-222222---|
D|---x-x-xxx--0-0-000--0-0-000000---|
A|---3-3-333--x-x-xxx--x-x-xxxxxx---|
E|---x-x-xxx--3-3-333--x-x-xxxxxx---|
 |Gtr II
e|---------------------x-x-xxxxxx---|
B|---------------------3-3-333333---|
G|---------------------2-2-222222---|
D|-------0-------------0-0-000000---|
A|---3-3-2-0----0-2----x-x-xxxxxx---|
E|------------3-----3--x-x-xxxxxx---|


Post Chorus is just bass for the first little bit
and then the guitar comes in at 1:07
  Gtr I
e|--------------------------------------|
B|--------------------------------------|
G|--------------------------------------|
D|--------------------------------------|
A|--------------------------------------|
E|--------------------------------------|
 |Gtr II
e|--------------------------------------|
B|--------------------------------------|
G|--------------------------------------|
D|--------------2-1-0-0-----------------|
A|------2---0-0-------------------------|
E|--0-0---3--------------2-3-3-3--2-1---|


Verse:
  Gtr I
e|--------------------------------------|
B|--------------------------------------|
G|----7-77----6-66----9--9-9-----4-44---|
D|----5-55----x-xx----x--x-x-----x-xx---|
A|--777-77----7-77----10-1010----5-55---|
E|----------555-55--888--8-8---333-33---|
 |Gtr II
e|----0-00----0-00----0--0-0-----3-33---|
B|----0-00----2-22----1--1-1-----3-33---|
G|----0-00----0-00----0--0-0-----0-00---|
D|----2-22----2-22----2--2-2-----0-00---|
A|----2-22--000-00--333--3-3-----2-22---|
E|--000-00---------------------333-33---|

  Gtr I
e|--------------------------------------|
B|--------------------------------------|
G|----7-77----6-66----9--9-9-----4-44---|
D|----5-55----x-xx----x--x-x-----x-xx---|
A|--777-77----7-77----10-1010----5-55---|
E|----------555-55--888--8-8---333-33---|
 |Gtr II
e|----0-00----0-00----0--0-0-----3-33---|
B|----0-00----2-22----1--1-1-----3-33---|
G|----0-00----0-00----0--0-0-----0-00---|
D|----2-22----2-22----2--2-2-----0-00---|
A|----2-22--000-00--333--3-3-----2-22---|
E|--000-00---------------------333-33---|

  Gtr I
e|--------------------------------------|
B|--------------------------------------|
G|----7-77----6-66----9--9-9-----4-44---|
D|----5-55----x-xx----x--x-x-----x-xx---|
A|--777-77----7-77----10-1010----5-55---|
E|----------555-55--888--8-8---333-33---|
 |Gtr II
e|----0-00----0-00----0--0-0-----3-33---|
B|----0-00----2-22----1--1-1-----3-33---|
G|----0-00----0-00----0--0-0-----0-00---|
D|----2-22----2-22----2--2-2-----0-00---|
A|----2-22--000-00--333--3-3-----2-22---|
E|--000-00---------------------333-33---|

  Gtr I
e|--------------------------------------|
B|--------------------------------------|
G|----7-77----6-66----9--9-9-----4-44---|
D|----5-55----x-xx----x--x-x-----x-xx---|
A|--777-77----7-77----10-1010----5-55---|
E|----------555-55--888--8-8---333-33---|
 |Gtr II
e|----0-00----0-00----0--0-0------------|
B|----0-00----2-22----1--1-1------------|
G|----0-00----0-00----0--0-0----(5)-----|
D|----2-22----2-22----2--2-2----(5)-----|
A|----2-22--000-00--333--3-3------------|
E|--000-00---------------------33-------|

  Gtr I
e|--------------------------------------|
B|--------------------------------------|
G|----7-77----6-66----9--9-9-----4-44---|
D|----5-55----x-xx----x--x-x-----x-xx---|
A|--777-77----7-77----10-1010----5-55---|
E|----------555-55--888--8-8---333-33---|
 |Gtr II
e|--------------------------------------|
B|--------------------------------------|
G|--------------------------------------|
D|--------------2-1-0-0-----------------|
A|------2---0-0-------------------------|
E|--0-0---3--------------2-3-3-3--2-1---|

  Gtr I
e|--------------------------------------|
B|--------------------------------------|
G|----7-77----6-66----9--9-9-----4-44---|
D|----5-55----x-xx----x--x-x-----x-xx---|
A|--777-77----7-77----10-1010----5-55---|
E|----------555-55--888--8-8---333-33---|
 |Gtr II
e|--------------------------------------|
B|--------------------------------------|
G|--------------------------------------|
D|--------------2-1-0-0-----------------|
A|------2---0-0-------------------------|
E|--0-0---3--------------2-3-3-3--2-1---|

  Gtr I
e|--------------------------------------|
B|--------------------------------------|
G|----7-77----6-66----9--9-9-----4-44---|
D|----5-55----x-xx----x--x-x-----x-xx---|
A|--777-77----7-77----10-1010----5-55---|
E|----------555-55--888--8-8---333-33---|
 |Gtr II
e|--------------------------------------|
B|--------------------------------------|
G|--------------------------------------|
D|--------------2-1-0-0-----------------|
A|------2---0-0-------------------------|
E|--0-0---3--------------2-3-3-3--2-1---|

  Gtr I
e|--------------------------------------|
B|--------------------------------------|
G|----7-77----6-66----9--9-9-----4-44---|
D|----5-55----x-xx----x--x-x-----x-xx---|
A|--777-77----7-77----10-1010----5-55---|
E|----------555-55--888--8-8---333-33---|
 |Gtr II
e|---------------------------------3~---|
B|---------------------------------3~---|
G|---------------------------------0~---|
D|---------------------------------0~---|
A|------2---0-0-0---3-3--2-0-------2~---|
E|--0-0---3-------3------------3-3-3~---|


Pre-Chorus:
  Gtr I
e|----0-00----0-00----0-00----2--22-----|
B|----0-00----0-00----2-22----4--44-----|
G|----1-11----1-11----0-00----2--22-----|
D|----2-22----0-00----2-22--444--44-----|
A|----2-22----2-22--000-00--222--22-----|
E|--000-00--000-00----------------------|
 |Gtr II
e|--------------------------------------|
B|--------------------------------------|
G|----9-------11------12------4-/--/--/-|
D|----x-------x-------x-------x-/--/--/-|
A|----7-------9-------10------2-/--/--/-|
E|--------------------------------------|

  Gtr I
e|----0-00----0-00----0-00----2--22-----|
B|----0-00----0-00----2-22----4--44-----|
G|----1-11----1-11----0-00----2--22-----|
D|----2-22----0-00----2-22--444--44-----|
A|----2-22----2-22--000-00--222--22-----|
E|--000-00--000-00----------------------|
 |Gtr II
e|--------------------------------------|
B|--------------------------------------|
G|-/-/9-------11------12------6-6-6-66--|
D|-/-/x-------x-------x-------x-x-x-xx--|
A|-/-/7-------9-------10------4-4-4-44--|
E|--------------------------------------|


Chorus:
  Gtr I
e|---x-x-xxx--x-x-xxx--x-x-xxx---|
B|---3-3-333--3-3-333--3-3-333---|
G|---0-0-000--0-0-000--2-2-222---|
D|---x-x-xxx--0-0-000--0-0-000---|
A|---3-3-333--x-x-xxx--x-x-xxx---|
E|---x-x-xxx--3-3-333--x-x-xxx---|
 |Gtr II
e|---------------------x-x-xxx---|
B|---------------------3-3-333---|
G|---------------------2-2-222---|
D|-------0-------------0-0-000---|
A|---3-3-2-0----0-2----x-x-xxx---|
E|------------3-----3--x-x-xxx---|

  Gtr I
e|---x-x-xxx--x-x-xxx--x-x-xxx---|
B|---3-3-333--3-3-333--3-3-333---|
G|---0-0-000--0-0-000--2-2-222---|
D|---x-x-xxx--0-0-000--0-0-000---|
A|---3-3-333--x-x-xxx--x-x-xxx---|
E|---x-x-xxx--3-3-333--x-x-xxx---|
 |Gtr II
e|---------------------x-x-xxx---|
B|---------------------3-3-333---|
G|---------------------2-2-222---|
D|-------0-------------0-0-000---|
A|---3-3-2-0----0-2----x-x-xxx---|
E|------------3-----3--x-x-xxx---|

  Gtr I
e|---x-x-xxx--x-x-xxx--x-x-xxx---|
B|---3-3-333--3-3-333--3-3-333---|
G|---0-0-000--0-0-000--2-2-222---|
D|---x-x-xxx--0-0-000--0-0-000---|
A|---3-3-333--x-x-xxx--x-x-xxx---|
E|---x-x-xxx--3-3-333--x-x-xxx---|
 |Gtr II
e|---------------------x-x-xxx---|
B|---------------------3-3-333---|
G|---------------------2-2-222---|
D|-------0-------------0-0-000---|
A|---3-3-2-0----0-2----x-x-xxx---|
E|------------3-----3--x-x-xxx---|

  Gtr I
e|---x-x-xxx--x-x-xxx--x-x-xxxxxx---|
B|---3-3-333--3-3-333--3-3-333333---|
G|---0-0-000--0-0-000--2-2-222222---|
D|---x-x-xxx--0-0-000--0-0-000000---|
A|---3-3-333--x-x-xxx--x-x-xxxxxx---|
E|---x-x-xxx--3-3-333--x-x-xxxxxx---|
 |Gtr II
e|---------------------x-x-xxxxxx---|
B|---------------------3-3-333333---|
G|---------------------2-2-222222---|
D|-------0-------------0-0-000000---|
A|---3-3-2-0----0-2----x-x-xxxxxx---|
E|------------3-----3--x-x-xxxxxx---|


Bridge:
  Gtr I
e|---0~---2~---0~---0~---|
B|---2~---4~---0~---2~---|
G|---0~---2~---0~---0~---|
D|---2~---4~---2~---2~---|
A|---0~---2~---2~---0~---|
E|-------------0~--------|
 |Gtr II
e|-----------------------|
B|-----------------------|
G|---9~---11~--12~--4~/-/|
D|---x----x----x----x~/-/|
A|---7~---9~---10~--2~/-/|
E|-----------------------|

  Gtr I
e|---0~---2~---0~---0~---|
B|---2~---4~---0~---2~---|
G|---0~---2~---0~---0~---|
D|---2~---4~---2~---2~---|
A|---0~---2~---2~---0~---|
E|-------------0~--------|
 |Gtr II
e|----------------------------|
B|----------------------------|
G|/-/9~---11~--12~--6-6-6-66--|
D|/-/x----x----x----x-x-x-xx--|
A|/-/7~---9~---10~--4-4-4-44--|
E|----------------------------|


Post Bridge:
  Gtr I
e|---x-x-xxx--x-x-xxx--x-x-xxx---|
B|---3-3-333--3-3-333--3-3-333---|
G|---0-0-000--0-0-000--2-2-222---|
D|---x-x-xxx--0-0-000--0-0-000---|
A|---3-3-333--x-x-xxx--x-x-xxx---|
E|---x-x-xxx--3-3-333--x-x-xxx---|
 |Gtr II
e|-------------------------------|
B|-------------------------------|
G|---5-5-55-5/4-4-44--4/7-7/9-9\\|
D|---x-x-xx-x-x-x-xx--x-x-x-x-x--|
A|---3-3-33-3/2-2-22--2/5-5/7-7\\|
E|-------------------------------|

  Gtr I
e|---x-x-xxx--x-x-xxx--x-x-xxx---|
B|---3-3-333--3-3-333--3-3-333---|
G|---0-0-000--0-0-000--2-2-222---|
D|---x-x-xxx--0-0-000--0-0-000---|
A|---3-3-333--x-x-xxx--x-x-xxx---|
E|---x-x-xxx--3-3-333--x-x-xxx---|
 |Gtr II
e|-------------------------------|
B|-------------------------------|
G|\\\5-5-55-5/4-4-4/9-9/11-11-/-/|
D|---x-x-xx-x-x-x-x-x-x-x--x-----|
A|\\\3-3-33-3/2-2-2/7-7/9--9/-/-/|
E|-------------------------------|

  Gtr I
e|---x-x-xxx--x-x-xxx--x-x-xxx---|
B|---3-3-333--3-3-333--3-3-333---|
G|---0-0-000--0-0-000--2-2-222---|
D|---x-x-xxx--0-0-000--0-0-000---|
A|---3-3-333--x-x-xxx--x-x-xxx---|
E|---x-x-xxx--3-3-333--x-x-xxx---|
 |Gtr II
e|-------------------------------|
B|---------------------10-10-10--|
G|---12-12-12-12-12-12-12-12-12--|
D|-------------------------------|
A|---10-10-10-10-10-10-10-10-10--|
E|-------------------------------|

  Gtr I
e|---x-x-xxx--x-x-xxx--x-x-xxx---|
B|---3-3-333--3-3-333--3-3-333---|
G|---0-0-000--0-0-000--2-2-222---|
D|---x-x-xxx--0-0-000--0-0-000---|
A|---3-3-333--x-x-xxx--x-x-xxx---|
E|---x-x-xxx--3-3-333--x-x-xxx---|
 |Gtr II
e|-------------------------------|
B|---10-10-------------10-10-10--|
G|---12-12-12-12-12-12-12-12-12--|
D|-------------------------------|
A|---10-10-10-10-10-10-10-10-10--|
E|-------------------------------|


End Chorus
  Gtr I
e|---x-x-xxx--x-x-xxx--x-x-xxx---|
B|---3-3-333--3-3-333--3-3-333---|
G|---0-0-000--0-0-000--2-2-222---|
D|---x-x-xxx--0-0-000--0-0-000---|
A|---3-3-333--x-x-xxx--x-x-xxx---|
E|---x-x-xxx--3-3-333--x-x-xxx---|
 |Gtr II
e|---------------------x-x-xxx---|
B|---------------------3-3-333---|
G|---------------------2-2-222---|
D|-------0-------------0-0-000---|
A|---3-3-2-0----0-2----x-x-xxx---|
E|------------3-----3--x-x-xxx---|

  Gtr I
e|---x-x-xxx--x-x-xxx--x-x-xxx---|
B|---3-3-333--3-3-333--3-3-333---|
G|---0-0-000--0-0-000--2-2-222---|
D|---x-x-xxx--0-0-000--0-0-000---|
A|---3-3-333--x-x-xxx--x-x-xxx---|
E|---x-x-xxx--3-3-333--x-x-xxx---|
 |Gtr II
e|---------------------x-x-xxx---|
B|---------------------3-3-333---|
G|---------------------2-2-222---|
D|-------0-------------0-0-000---|
A|---3-3-2-0----0-2----x-x-xxx---|
E|------------3-----3--x-x-xxx---|

  Gtr I
e|---x-x-xxx--x-x-xxx--x-x-xxx---|
B|---3-3-333--3-3-333--3-3-333---|
G|---0-0-000--0-0-000--2-2-222---|
D|---x-x-xxx--0-0-000--0-0-000---|
A|---3-3-333--x-x-xxx--x-x-xxx---|
E|---x-x-xxx--3-3-333--x-x-xxx---|
 |Gtr II
e|---------------------x-x-xxx---|
B|---------------------3-3-333---|
G|---------------------2-2-222---|
D|-------0-------------0-0-000---|
A|---3-3-2-0----0-2----x-x-xxx---|
E|------------3-----3--x-x-xxx---|

  Gtr I
e|---x-x-xxx--x-x-xxx--x-x-xxxxxx---|
B|---3-3-333--3-3-333--3-3-333333---|
G|---0-0-000--0-0-000--2-2-222222---|
D|---x-x-xxx--0-0-000--0-0-000000---|
A|---3-3-333--x-x-xxx--x-x-xxxxxx---|
E|---x-x-xxx--3-3-333--x-x-xxxxxx---|
 |Gtr II
e|---------------------x-x-xxxxxx---|
B|---------------------3-3-333333---|
G|---------------------2-2-222222---|
D|-------0-------------0-0-000000---|
A|---3-3-2-0----0-2----x-x-xxxxxx---|
E|------------3-----3--x-x-xxxxxx---|

  Gtr I
e|---x-x-xxx--x-x-xxx--x-x-xxx---|
B|---3-3-333--3-3-333--3-3-333---|
G|---0-0-000--0-0-000--2-2-222---|
D|---x-x-xxx--0-0-000--0-0-000---|
A|---3-3-333--x-x-xxx--x-x-xxx---|
E|---x-x-xxx--3-3-333--x-x-xxx---|
 |Gtr II
e|---x-x-xxx--x-x-xxx--x-x-xxx---|
B|---3-3-333--3-3-333--3-3-333---|
G|---0-0-000--0-0-000--2-2-222---|
D|---x-x-xxx--0-0-000--0-0-000---|
A|---3-3-333--x-x-xxx--x-x-xxx---|
E|---x-x-xxx--3-3-333--x-x-xxx---|

  Gtr I
e|---x-x-xxx--x-x-xxx--x-x-xxx---|
B|---3-3-333--3-3-333--3-3-333---|
G|---0-0-000--0-0-000--2-2-222---|
D|---x-x-xxx--0-0-000--0-0-000---|
A|---3-3-333--x-x-xxx--x-x-xxx---|
E|---x-x-xxx--3-3-333--x-x-xxx---|
 |Gtr II
e|---x-x-xxx--x-x-xxx--x-x-xxx---|
B|---3-3-333--3-3-333--3-3-333---|
G|---0-0-000--0-0-000--2-2-222---|
D|---x-x-xxx--0-0-000--0-0-000---|
A|---3-3-333--x-x-xxx--x-x-xxx---|
E|---x-x-xxx--3-3-333--x-x-xxx---|

  Gtr I
e|---x-x-xxx--x-x-xxx--x-x-xxx---|
B|---3-3-333--3-3-333--3-3-333---|
G|---0-0-000--0-0-000--2-2-222---|
D|---x-x-xxx--0-0-000--0-0-000---|
A|---3-3-333--x-x-xxx--x-x-xxx---|
E|---x-x-xxx--3-3-333--x-x-xxx---|
 |Gtr II
e|---x-x-xxx--x-x-xxx--x-x-xxx---|
B|---3-3-333--3-3-333--3-3-333---|
G|---0-0-000--0-0-000--2-2-222---|
D|---x-x-xxx--0-0-000--0-0-000---|
A|---3-3-333--x-x-xxx--x-x-xxx---|
E|---x-x-xxx--3-3-333--x-x-xxx---|

  Gtr I
e|---x-x-xxx--x-x-x--x--|
B|---3-3-333--3-3-3--3~-|
G|---0-0-000--0-0-0--2~-|
D|---x-x-xxx--0-0-0--0~-|
A|---3-3-333--x-x-x--x--|
E|---x-x-xxx--3-3-3--x--|
 |Gtr II                              END
e|---x-x-xxx--x-x-x--x--|
B|---3-3-333--3-3-3--3~-|
G|---0-0-000--0-0-0--2~-|
D|---x-x-xxx--0-0-0--0~-|
A|---3-3-333--x-x-x--x--|
E|---x-x-xxx--3-3-3--x--|

Any questions or comments? 
Please email me...or comment
Please rate as well!



| /  slide up
| \  slide down
| h  hammer-on
| p  pull-off
| ~  vibrato
| ()  harmonic
| x  Mute note
===============================================================================
comments
print report bad tab
8 comments total. Showing first comments.
0 reply
strat-o-psych wrote on July 28 2007, 11:51 am

this song owns, good job

-1 reply
xonos wrote on January 10 2008, 07:54 pm

Gtr
I
e|--------------------------------------|
B|--------------------------------------|
G|----7-77----6-66----9--9-9---
--4-44---|
D|----5-55----x-xx----x--x-x-----x-xx---|
A|--777-77----7-77----10-1010----5-55---|
E|----------555-55--88
8--8-8---333-33---|


how would you go about to mutign that part?

0 reply
nrlsky wrote on January 24 2008, 07:14 pm

The video was removed from youtube, however, you can find it here
http://music.aol.com/video/crooked-teeth-aol-sessions/death-cab-for-cutie/1379286

I want to post or [tab]
guest
You may want to rate the tab now too:
select rating
Please do not post tabs as comments. Select "correction" instead!