Oops, an error
Loading. Please wait.

I Will Follow You Into The Dark Tab

ver6
4,948 views 6 this week
no commentswrite comment
1 2 3 4 5
worth learning
x 2
Autoscroll
+/-
esc
set tempo
stop
Difficulty
novice
NEW! There's an official Ultimate Guitar app which is ideal
for learning songs when you're away from computer. Get the app
WARNING: You are trying to view
                                    content from Ultimate-Guitar.com
                                    in an unauthorized application,
                                    which is prohibited.

                                    Please use an official Ultimate
                                    Guitar Tabs application for iPhone,
                                    iPad or Android to access legitimate
                                    chords, guitar, bass, and drum tabs
                                    from Ultimate-Guitar.com database.

                                    Type "ultimate guitar tabs" in Apple
                                    App Store's or Android Market's
                                    search to find the application.
E||------------------------------|--------------------------------|
B||-------6-------------6--------|-------6--------------6-------6-|
G||----------7---7---------5---5-|----------7---7-----5-------5---|
D||-----7------7------7------7---|------------8-----7-------5-----|
A||--5-------------8-------------|-----8----------8-------7-------|
E||------------------------------|--6-----------------------------|


                                                              
------------------------------|------------------------------|
-------6-------------6--------|-------8-------------8--------|
----------7---7---------5---5-|----------5-------------5-----|
-----7------7------7------7---|------------5-------------5---|
--5-------------8-------------|-----7--------7----7--------7-|
------------------------------|--8-------------8-------------|


                                                                
------------------------------|--------------------------------|
-------6-------------6--------|----------------------6-------6-|
----------7---7---------5---5-|-------6------------7-------5---|
-----7------7------7------7---|----------7---7---7-------5-----|
--5-------------8-------------|-----2------7---5---------------|
------------------------------|--5---------------------8-------|


                                                             
-----------------------------|------------------------------|
-------6--------6------------|-------6-------------6--------|
----------7---7-6------6-----|----------5---5---------5---5-|
------------8---8---8----8---|-----7------7------7------7---|
-----8----------8----------8-|--8-------------8-------------|
--6-------------6------------|------------------------------|


                                                                
|-------------------------------|------------------------------|
|--------6-------------6--------|-------6-------------6--------|
|*----------5---5---------5---5-|----------7---7---------7---7-|
|*-----7------7------7------7---|-----7------7------7------7---|
|---8-------------8-------------|--5-------------5-------------|
|-------------------------------|------------------------------|


                                                                
------------------------------|-------------------------------||
-------6-------------6--------|-------6-------------8---------||
----------7---7---------7---7-|----------5---5---------5-----*||
------------8-------------8---|-----7------7-------------5---*||
-----8-------------8----------|--8----------------7--------7--||
--6-------------6-------------|----------------8--------------||


                                                                
------------------------------|--------------------------------|
-------6-------------6--------|-------6--------------6-------6-|
----------7---7---------5---5-|----------7---7-----5-------5---|
-----7------7------7------7---|------------8-----7-------5-----|
--5-------------8-------------|-----8----------8-------7-------|
------------------------------|--6-----------------------------|


                                                              
------------------------------|------------------------------|
-------6-------------6--------|-------8-------------8--------|
----------7---7---------5---5-|----------5-------------5-----|
-----7------7------7------7---|------------5-------------5---|
--5-------------8-------------|-----7--------7----7--------7-|
------------------------------|--8-------------8-------------|


                                                                
------------------------------|--------------------------------|
-------6-------------6--------|----------------------6-------6-|
----------7---7---------5---5-|-------6------------7-------5---|
-----7------7------7------7---|----------7---7---7-------5-----|
--5-------------8-------------|-----7------7---5---------------|
------------------------------|--5---------------------8-------|


                                                              
------------------------------|------------------------------|
-------6--------6----6--------|-------6-------------6--------|
----------7---7-6-------6-----|----------5---5---------5---5-|
------------8---8--8------8---|-----7------7------7------7---|
-----8----------8-----------8-|--8-------------8-------------|
--6-------------6-------------|------------------------------|


Capo 5                                                              
|-------------------------------|------------------------------|
|--------1-------------1--------|-------1-------------1--------|
|*----------0---0---------0---0-|----------2---2---------2---2-|
|*-----2------2------2------2---|-----2------2------2------2---|
|---3-------------3-------------|--0-------------0-------------|
|-------------------------------|------------------------------|


                                                                
------------------------------|-------------------------------||
-------1-------------1--------|-------1-------------3---------||
----------2---2---------2---2-|----------0---0---------0-----*||
------------3-------------3---|-----2------2-------------0---*||
-----3-------------3----------|--3----------------2--------2--||
--1-------------1-------------|----------------3--------------||


                                                                
------------------------------|--------------------------------|
-------1-------------1--------|-------1--------------1-------1-|
----------2---2---------0---0-|----------2---2-----0-------0---|
-----2------2------2------2---|------------3-----2-------0-----|
--0-------------3-------------|-----3----------3-------2-------|
------------------------------|--1-----------------------------|


                                                              
------------------------------|------------------------------|
-------1-------------1--------|-------3-------------3--------|
----------2---2---------0---0-|----------0-------------0-----|
-----2------2------2------2---|------------0-------------0---|
--0-------------3-------------|-----2--------2----2--------2-|
------------------------------|--3-------------3-------------|


                                                                
------------------------------|--------------------------------|
-------1-------------1--------|----------------------1-------1-|
----------2---2---------0---0-|-------1------------2-------0---|
-----2------2------2------2---|----------2---2---2-------0-----|
--0-------------3-------------|-----2------2---0---------------|
------------------------------|--0---------------------3-------|


                                                              
------------------------------|------------------------------|
-------1--------1----1--------|-------1-------------1--------|
----------2---2-1-------1-----|----------0---0---------0---0-|
------------3---3--3------3---|-----2------2------2------2---|
-----3----------3-----------3-|--3-------------3-------------|
--1-------------1-------------|------------------------------|


                                                                
|-------------------------------|------------------------------|
|--------1-------------1--------|-------1-------------1--------|
|*----------0---0---------0---0-|----------2---2---------2---2-|
|*-----2------2------2------2---|-----2------2------2------2---|
|---3-------------3-------------|--0-------------0-------------|
|-------------------------------|------------------------------|


                                                                
------------------------------|-------------------------------||
-------1-------------1--------|-------1-------------3---------||
----------2---2---------2---2-|----------0---0---------0-----*||
------------3-------------3---|-----2------2-------------0---*||
-----3-------------3----------|--3----------------2--------2--||
--1-------------1-------------|----------------3--------------||


                                                              
------------------------------|------------------------------|
-------1-------------1--------|-------1-------------1--------|
----------1---1---------1---1-|----------1---1---------1---1-|
------------3-------------3---|------------3-------------3---|
-----3-------------3----------|-----3-------------3----------|
--1-------------1-------------|--1-------------1-------------|


                                                                
------------------------------|--------------------------------|
-------1-------------1--------|-------1--------------1-------1-|
----------2---2---------0---0-|----------2---2-----0-------0---|
-----2------2------2------2---|------------3-----2-------0-----|
--0-------------3-------------|-----3----------3-------2-------|
------------------------------|--1-----------------------------|


                                                              
------------------------------|------------------------------|
-------1-------------1--------|-------3-------------3--------|
----------2---2---------0---0-|----------0-------------0-----|
-----2------2------2------2---|------------0-------------0---|
--0-------------3-------------|-----2--------2----2--------2-|
------------------------------|--3-------------3-------------|


                                                                
------------------------------|--------------------------------|
-------1-------------1--------|----------------------1-------1-|
----------2---2---------0---0-|-------1------------2-------0---|
-----2------2------2------2---|----------2---2---2-------0-----|
--0-------------3-------------|-----2------2---0---------------|
------------------------------|--0---------------------3-------|


                                                              
------------------------------|------------------------------|
-------1--------1----1--------|-------1-------------1--------|
----------2---2-1-------1-----|----------0---0---------0---0-|
------------3---3--3------3---|-----2------2------2------2---|
-----3----------3-----------3-|--3-------------3-------------|
--1-------------1-------------|------------------------------|


                                          
--------------------|-------------------||
--1--------1--------|--1----------------||
--2--------1--------|--0----------------||
--3--------3--------|--2----------------||
--3--------3--------|--3----------------||
--1--------1--------|-------------------||
comments
We did not receive enough feedback on this tab! Please rate:
print report bad tab
1 2 3 4 5
I want to post or [tab]
guest
You may want to rate the tab now too:
select rating
Please do not post tabs as comments. Select "correction" instead!