Oops, an error
Loading. Please wait.

Plans Tab

14,925 views 6 this week
2 commentsread comments
1 2 3 4 5
accurate
x 3
Autoscroll
+/-
esc
set tempo
stop
Contributor
Difficulty
intermediate
Hey! There's an official Ultimate Guitar app which is ideal
for learning songs when you're away from computer. Get the app
WARNING: You are trying to view
                                    content from Ultimate-Guitar.com
                                    in an unauthorized application,
                                    which is prohibited.

                                    Please use an official Ultimate
                                    Guitar Tabs application for iPhone,
                                    iPad or Android to access legitimate
                                    chords, guitar, bass, and drum tabs
                                    from Ultimate-Guitar.com database.

                                    Type "ultimate guitar tabs" in Apple
                                    App Store's or Android Market's
                                    search to find the application.
i didn't tab any of this. i just took the best of the tabs for the song

1.Marching Bands Of Manhattan (Unregistered)
2.Soul Meets Body (z3r0element07)
3.Summer Skin (Unregistered)
4.Different Names For the Same Things (Adam Reczek)
5.I Will Follow You Into the Dark (Unregistered)
6.Your Heart Is An Empty Room (larry_chimp_man)
7.Someday You Will Be Loved (Unregistered)
8.Crooked Teeth (galateastilston)
9.What Sarah Said (Unregistered)
10.Brothers on a Hotel Bed (condiments)
11.Stable Song (keviniscool88)

DEATH CAB FOR CUTIE - MARCHING BANDS OF MANHATTAN (ACCOUSTIC)
Tabbed by: Allions
Standard Tunning

VERSE 1
C                   G
If I could open my arms
Dm                            Am
And span the length of the isle of Manhattan,
C                          G
I'd bring it to where you are
Dm                     Am
Making a lake of the East River and Hudson
C                       G
And if I could open my mouth
Dm                  Am
Wide enough for a marching band to march out of
C                          G
They would make your name sing
Dm                             Am
And bend through alleys and bounce off other buildings.

C   Am   C   G
C   Am   C   G

VERSE 2
C                         G
I wish we could open our eyes
Dm                 Am
To see in all directions at the same time
C                    G
Oh what a beautiful view
Dm                  Am
If you were never aware of what was around you
C                        G
And it is true what you said
Dm                  Am
That I live like a hermit in my own head
C                        G
But when the sun shines again
Dm                            Am
I'll pull the curtains and blinds to let the light in.

CHORUS
F                     Am
Sorrow drips into your heart through a pinhole
C                            G
Just like a faucet that leaks and there is comfort in the sound
F                     Am
But while you debate half empty or half full
C               G
It slowly rises, your love is gonna drown

F      Am      C      G
                         Your love is gonna drown
F      Am      C      G                       (F)
                         Your love is gonna...


Title – Soul Meets Body
Artist- Death Cab for Cutie
Album – Plans

Tabbed by: Larry A

Tuning: Standard
Guitar 1 – Acoustic (Capo 5th fret)
Guitar 2 – Keyboard effects (Tabbed for guitar)

 _________________
|Intro (0:00-0:14)|
|_________________|

Guitar 2
e| |---------------------------------|---------------------------------|
B| |17--17--15--15--17--17--15--15---|20--20--18--18--20--20--18--18---|
G| |---------------------------------|---------------------------------|
D| |--14--14--12--12--14--14--12--12-|--17--17--15--15--17--17--15--15-|
A| |---------------------------------|---------------------------------|
E| |---------------------------------|---------------------------------|

Guitar 2
e| |---------------------------------|---------------------------------|
B| |17--17--15--15--17--17--15--15---|20--20--18--18--20--20--18--18---|
G| |---------------------------------|---------------------------------|
D| |--14--14--12--12--14--14--12--12-|--17--17--15--15--17--17--15--15-|
A| |---------------------------------|---------------------------------|
E| |---------------------------------|---------------------------------|
                                                                       |
Guitar 1                                                               |
e| |-x-x-x-x-x-x-x-x-x-x-x-x-x-x-x-x-|-x-x-x-x-x-x-x-x-x-x-x-x-x-x-x-x-|
B| |-x-x-x-x-x-x-x-x-x-x-x-x-x-x-x-x-|-x-x-x-x-x-x-x-x-x-x-x-x-x-x-x-x-|
G| |-x-x-x-x-x-x-x-x-x-x-x-x-x-x-x-x-|-x-x-x-x-x-x-x-x-x-x-x-x-x-x-x-x-|
D| |-x-x-x-x-x-x-x-x-x-x-x-x-x-x-x-x-|-x-x-x-x-x-x-x-x-x-x-x-x-x-x-x-x-|
A| |-x-x-x-x-x-x-x-x-x-x-x-x-x-x-x-x-|-x-x-x-x-x-x-x-x-x-x-x-x-x-x-x-x-|
E| |-x-x-x-x-x-x-x-x-x-x-x-x-x-x-x-x-|-x-x-x-x-x-x-x-x-x-x-x-x-x-x-x-x-|

 _________________
|Verse (0:15-1:07)|
|_________________|

Guitar 1
e| |-0-0-0-0-0-0-0-0-0-0-0-0-0-0-0-0-|-0-0-0-0-0-0-0-0-0-0-0-0-0-0-0-0-|
B| |o1-1-1-1-1-1-1-1-1-1-1-1-1-1-1-1-|-1-1-1-1-1-1-1-1-1-1-1-1-1-1-1-1o|
G| |-2-2-2-2-2-2-2-2-2-2-2-2-2-2-2-2-|-0-0-0-0-0-0-0-0-0-0-0-0-0-0-0-0-|
D| |-2-2-2-2-2-2-2-2-2-2-2-2-2-2-2-2-|-2-2-2-2-2-2-2-2-2-2-2-2-2-2-2-2-|
A| |o0-0-0-0-0-0-0-0-0-0-0-0-0-0-0-0-|-3-3-3-3-3-3-3-3-3-3-3-3-3-3-3-3o|
E| |-x-x-x-x-x-x-x-x-x-x-x-x-x-x-x-x-|-x-x-x-x-x-x-x-x-x-x-x-x-x-x-x-x-|
  1.       I want to live      Where   soul meets body
  2.       And let the sun  Wrap its   arms around me              And
  3.       Bathe my skin    In water   cool and cleansing          And

Guitar 1
e| |-x-x-x-x-x-x-x-x-x-x-x-x-x-x-x-x-|-x-x-x-x-x-x-x-x-x-x-x-x-x-x-x-x-|
B| |-3-3-3-3-3-3-3-3-3-3-3-3-3-3-3-3-|-3-3-3-3-3-3-3-3-3-3-3-3-3-3-3-3-|
G| |-0-0-0-0-0-0-0-0-0-0-0-0-0-0-0-0-|-0-0-0-0-0-0-0-0-0-0-0-0-0-0-0-0-|
D| |-0-0-0-0-0-0-0-0-0-0-0-0-0-0-0-0-|-0-0-0-0-0-0-0-0-0-0-0-0-0-0-0-0-|
A| |-2-2-2-2-2-2-2-2-2-2-2-2-2-2-2-2-|-2-2-2-2-2-2-2-2-2-2-2-2-2-2-2-2-|
E| |-3-3-3-3-3-3-3-3-3-3-3-3-3-3-3-3-|-3-3-3-3-3-3-3-3-3-3-3-3-3-3-3-3-|
     Feel...                           feel what it's like to be new   |
                                                                       |
Guitar 2                                                               |
e| |---------------------------------|---------------------------------|
B| |17--17--15--15--17--17--15--15---|17--17--15--15--17--17--15--15---|
G| |---------------------------------|---------------------------------|
D| |--14--14--12--12--14--14--12--12-|--14--14--12--12--14--14--12--12-|
A| |---------------------------------|---------------------------------|
E| |---------------------------------|---------------------------------|

Guitar 1
e| |-0-0-0-0-0-0-0-0-0-0-0-0-0-0-0-0-|-0-0-0-0-0-0-0-0-0-0-0-0-0-0-0-0-|
B| |o1-1-1-1-1-1-1-1-1-1-1-1-1-1-1-1-|-1-1-1-1-1-1-1-1-1-1-1-1-1-1-1-1o|
G| |-2-2-2-2-2-2-2-2-2-2-2-2-2-2-2-2-|-0-0-0-0-0-0-0-0-0-0-0-0-0-0-0-0-|
D| |-2-2-2-2-2-2-2-2-2-2-2-2-2-2-2-2-|-2-2-2-2-2-2-2-2-2-2-2-2-2-2-2-2-|
A| |o0-0-0-0-0-0-0-0-0-0-0-0-0-0-0-0-|-3-3-3-3-3-3-3-3-3-3-3-3-3-3-3-3o|
E| |-x-x-x-x-x-x-x-x-x-x-x-x-x-x-x-x-|-x-x-x-x-x-x-x-x-x-x-x-x-x-x-x-x-|
  1.       'Cause in my head There's   a Greyhound station             |
  2.       Where I send my thoughts to far-off destinations         So |
  3. They may have a chance       of   finding a place where they're   |
                                                                       |
Guitar 2                                                               |
e| |---------------------------------|---------------------------------|
B| |17--17--15--15--17--17--15--15---|20--20--18--18--20--20--18--18--o|
G| |---------------------------------|---------------------------------|
D| |--14--14--12--12--14--14--12--12-|--17--17--15--15--17--17--15--15-|
A| |o--------------------------------|--------------------------------o|
E| |---------------------------------|---------------------------------|

 ______________________
|Pre-Chorus (1:08-1:10)|
|______________________|

Guitar 1
e| |-x-x-x-x-x-x-x-x-x-x-x-x-x-x-x-x-|
B| |-3-3-3-3-3-3-3-3-3-3-3-3-3-3-3-3-|
G| |-0-0-0-0-0-0-0-0-0-0-0-0-0-0-0-0-|
D| |-0-0-0-0-0-0-0-0-0-0-0-0-0-0-0-0-|
A| |-2-2-2-2-2-2-2-2-2-2-2-2-2-2-2-2-|
E| |-3-3-3-3-3-3-3-3-3-3-3-3-3-3-3-3-|
     Far more suited then here       |
                                     |
Guitar 2                             |
e| |---------------------------------|
B| |20--20--18--18--20--20--18--18---|
G| |---------------------------------|
D| |--17--17--15--15--17--17--15--15-|
A| |---------------------------------|
E| |---------------------------------|

 __________________
|Chorus (1:11-1:26)|
|__________________|

Guitar 1
e| |---------------------------------|---------------------------------|
B| |---------------------------------|---------------------------------|
G| |-------0-------0-----------------|-------0-------0-----------------|
D| |-----2-------2-------------------|-----2-------2-------------------|
A| |-0-0-----3-3---------------------|-0-0-----3-3---------------------|
E| |-----------------3-3-3-3-3-3-3-3-|-----------------3-3-3-3-3-3-3-3-|

Guitar 1
e| |---------------------------------|---------------------------------|
B| |---------------------------------|---------------------------------|
G| |-----0---------------------------|---------------------------------|
D| |---2---------0-------------------|-2-2-------------0-0-0-0-0-0-0-0-|
A| |-0---------3---------------------|-0-0-3-3-3-3-3-3-2-2-2-2-2-2-2-2-|
E| |-------0-1-----0-3-3-3-3-3-3-3-3-|-0-0-0-0-1-1-3-3-3-3-3-3-3-3-3-3-|

 _____________________
|Interlude (1:26-1:40)|
|_____________________|

Guitar 1
e| |-0-0-0-0-0-0-0-0-0-0-0-0-0-0-0-0-|-0-0-0-0-0-0-0-0-0-0-0-0-0-0-0-0-|
B| |o1-1-1-1-1-1-1-1-1-1-1-1-1-1-1-1-|-1-1-1-1-1-1-1-1-1-1-1-1-1-1-1-1o|
G| |-2-2-2-2-2-2-2-2-2-2-2-2-2-2-2-2-|-0-0-0-0-0-0-0-0-0-0-0-0-0-0-0-0-|
D| |-2-2-2-2-2-2-2-2-2-2-2-2-2-2-2-2-|-2-2-2-2-2-2-2-2-2-2-2-2-2-2-2-2-|
A| |o0-0-0-0-0-0-0-0-0-0-0-0-0-0-0-0-|-3-3-3-3-3-3-3-3-3-3-3-3-3-3-3-3o|
E| |-x-x-x-x-x-x-x-x-x-x-x-x-x-x-x-x-|-x-x-x-x-x-x-x-x-x-x-x-x-x-x-x-x-|
  1.
  2.

 _________________
|Verse (1:41-2:03)|
|_________________|

Guitar 1
e| |-0-0-0-0-0-0-0-0-0-0-0-0-0-0-0-0-|-0-0-0-0-0-0-0-0-0-0-0-0-0-0-0-0-|
B| |o1-1-1-1-1-1-1-1-1-1-1-1-1-1-1-1-|-1-1-1-1-1-1-1-1-1-1-1-1-1-1-1-1o|
G| |-2-2-2-2-2-2-2-2-2-2-2-2-2-2-2-2-|-0-0-0-0-0-0-0-0-0-0-0-0-0-0-0-0-|
D| |-2-2-2-2-2-2-2-2-2-2-2-2-2-2-2-2-|-2-2-2-2-2-2-2-2-2-2-2-2-2-2-2-2-|
A| |o0-0-0-0-0-0-0-0-0-0-0-0-0-0-0-0-|-3-3-3-3-3-3-3-3-3-3-3-3-3-3-3-3o|
E| |-x-x-x-x-x-x-x-x-x-x-x-x-x-x-x-x-|-x-x-x-x-x-x-x-x-x-x-x-x-x-x-x-x-|
  1.       And I cannot guess   What   we'll discover                  |
  2.       When we turn the dirt With  palms cupped like shovels But I |
                                 our                                   |
  3. Know our filthy hands       Can   wash one another's          And |
                                                                       |
Guitar 2                                                               |
e| |---------------------------------|---------------------------------|
B| |17--17--15--15--17--17--15--15---|20--20--18--18--20--20--18--18--o|
G| |---------------------------------|---------------------------------|
D| |--14--14--12--12--14--14--12--12-|--17--17--15--15--17--17--15--15-|
A| |o--------------------------------|--------------------------------o|
E| |---------------------------------|---------------------------------|

 ______________________
|Pre-Chorus (2:03-2:07)|
|______________________|

Guitar 1
e| |-x-x-x-x-x-x-x-x-x-x-x-x-x-x-x-x-|
B| |-3-3-3-3-3-3-3-3-3-3-3-3-3-3-3-3-|
G| |-0-0-0-0-0-0-0-0-0-0-0-0-0-0-0-0-|
D| |-0-0-0-0-0-0-0-0-0-0-0-0-0-0-0-0-|
A| |-2-2-2-2-2-2-2-2-2-2-2-2-2-2-2-2-|
E| |-3-3-3-3-3-3-3-3-3-3-3-3-3-3-3-3-|
     Not one speck will remain   And |
                                     |
Guitar 2                             |
e| |---------------------------------|
B| |20--20--18--18--20--20--18--18---|
G| |---------------------------------|
D| |--17--17--15--15--17--17--15--15-|
A| |---------------------------------|
E| |---------------------------------|

 __________________
|Chorus (2:07-2:37)|
|__________________|

Guitar 1
e| |---------------------------------|---------------------------------|
B| |o--------------------------------|---------------------------------|
G| |-------0-------0-----------------|-------0-------0-----------------|
D| |-----2-------2-------------------|-----2-------2-------------------|
A| |o0-0-----3-3---------------------|-0-0-----3-3---------------------|
E| |-----------------3-3-3-3-3-3-3-3-|-----------------3-3-3-3-3-3-3-3-|
  1. I do    it's true    That there   Roads   Both of      But if the |
     believe              are          left in our shoes               |
                                                                       |
  2. So Brown  Hold you 'Cause you're  Song I want to hear    A melody |
     Eyes I'll near      the only                                      |
                                                                       |
Guitar 2                                                               |
e| |---------------------------------|---------------------------------|
B| |o--------------------------------|---------------------------------|
G| |------------12-------------------|------------12-------------------|
D| |--12----15-----14----------------|--12----15------14---------------|
A| |12-------------------------------|12-------------------------------|
E| |---------------------------------|---------------------------------|


Guitar 1
e| |---------------------------------|---------------------------------|
B| |---------------------------------|--------------------------------o|
G| |-----0---------------------------|---------------------------------|
D| |---2---------0-------------------|-2-2-------------0-0-0-0-0-0-0-0-|
A| |-0---------3---------------------|-0-0-3-3-3-3-3-3-2-2-2-2-2-2-2-2o|
E| |-------0-1-----0-3-3-3-3-3-3-3-3-|-0-0-0-0-1-1-3-3-3-3-3-3-3-3-3-3-|
  1. Silence You    hope    That it    too                             |
     takes   then I         takes me                                   |
                                                                       |
  2. Softly soaring through my atmosphere                        Where |
                                                                       |
Guitar 2                                                               |
e| |---------------------------------|---------------------------------|
B| |---------------------------------|--------------------------------o|
G| |---------------12----------------|---------------------------------|
D| |--12----15--14-------------------|---------------------------------|
A| |12-------------------------------|--------------------------------o|
E| |---------------------------------|---------------------------------|

 __________________
|Bridge (2:37-2:48)|
|__________________|

Guitar 1
e| |-0-0-0-0-0---0-0-0-0-----0-0-0-0-|-0-0-0-0-0---0-0-0-0-------------|
B| |-1-1-1-1-1---1-1-1-1-----1-1-1-1-|-1-1-1-1-1---1-1-1-1-------------|
G| |-2-2-2-2-2---2-2-2-2-----0-0-0-0-|-2-2-2-2-2---2-2-2-2-------------|
D| |-2-2-2-2-2---2-2-2-2-----2-2-2-2-|-2-2-2-2-2---2-2-2-2-------------|
A| |-0-0-0-0-0---0-0-0-0-----3-3-3-3-|-0-0-0-0-0---0-0-0-0-------------|
E| |-x-x-x-x-x---x-x-x-x-----x-x-x-x-|-x-x-x-x-x---x-x-x-x-------------|
     Soul meets body...                                          Where

Guitar 1
e| |-0-0-0-0-0---0-0-0-0-----0-0-0-0-|
B| |-1-1-1-1-1---1-1-1-1-----1-1-1-1-|
G| |-2-2-2-2-2---2-2-2-2-----0-0-0-0-|
D| |-2-2-2-2-2---2-2-2-2-----2-2-2-2-|
A| |-0-0-0-0-0---0-0-0-0-----3-3-3-3-|
E| |-x-x-x-x-x---x-x-x-x-----x-x-x-x-|
     Soul meets body...        Where

 ______________________
|Pre-Chorus (2:49-2:55)|
|______________________|

Guitar 1
e| |-x-x-x-x-x-x-x-x-x-x-x-x-x-x-x-x-|-x-x-x-x-x-x-x-x-x-x-x-x-x-x-x-x-|
B| |-3-3-3-3-3-3-3-3-3-3-3-3-3-3-3-3-|-3-3-3-3-3-3-3-3-3-3-3-3-3-3-3-3-|
G| |-0-0-0-0-0-0-0-0-0-0-0-0-0-0-0-0-|-0-0-0-0-0-0-0-0-0-0-0-0-0-0-0-0-|
D| |-0-0-0-0-0-0-0-0-0-0-0-0-0-0-0-0-|-0-0-0-0-0-0-0-0-0-0-0-0-0-0-0-0-|
A| |-2-2-2-2-2-2-2-2-2-2-2-2-2-2-2-2-|-2-2-2-2-2-2-2-2-2-2-2-2-2-2-2-2-|
E| |-3-3-3-3-3-3-3-3-3-3-3-3-3-3-3-3-|-3-3-3-3-3-3-3-3-3-3-3-3-3-3-3-3-|
     Soul meets body...                                                |
Guitar 2                                                               |
e| |---------------------------------|---------------------------------|
B| |17--17--15--15--17--17--15--15---|20--20--18--18--20--20--18--18---|
G| |---------------------------------|---------------------------------|
D| |--14--14--12--12--14--14--12--12-|--17--17--15--15--17--17--15--15-|
A| |---------------------------------|---------------------------------|
E| |---------------------------------|---------------------------------|

 __________________
|Chorus (2:56-3:25)|
|__________________|

Guitar 1
e| |---------------------------------|---------------------------------|
B| |o--------------------------------|---------------------------------|
G| |-------0-------0-----------------|-------0-------0-----------------|
D| |-----2-------2-------------------|-----2-------2-------------------|
A| |o0-0-----3-3---------------------|-0-0-----3-3---------------------|
E| |-----------------3-3-3-3-3-3-3-3-|-----------------3-3-3-3-3-3-3-3-|
  1. I do    it's true    That there   Roads   Both of      But if the |
     believe              are          left in our shoes               |
                                                                       |
  2. So Brown  Hold you 'Cause you're  Song I want to hear    A melody |
     Eyes I'll near      the only                                      |
                                                                       |
Guitar 2                                                               |
e| |---------------------------------|---------------------------------|
B| |o--------------------------------|---------------------------------|
G| |------------12-------------------|------------12-------------------|
D| |--12----15-----14----------------|--12----15------14---------------|
A| |12-------------------------------|12-------------------------------|
E| |---------------------------------|---------------------------------|


Guitar 1
e| |---------------------------------|---------------------------------|
B| |---------------------------------|--------------------------------o|
G| |-----0---------------------------|---------------------------------|
D| |---2---------0-------------------|-2-2-------------0-0-0-0-0-0-0-0-|
A| |-0---------3---------------------|-0-0-3-3-3-3-3-3-2-2-2-2-2-2-2-2o|
E| |-------0-1-----0-3-3-3-3-3-3-3-3-|-0-0-0-0-1-1-3-3-3-3-3-3-3-3-3-3-|
  1. Silence You    hope    That it    too                             |
     takes   then I         takes me                                   |
                                                                       |
  2. Softly soaring through my atmosphere                     A melody |
                                                                       |
Guitar 2                                                               |
e| |---------------------------------|---------------------------------|
B| |---------------------------------|--------------------------------o|
G| |---------------12----------------|---------------------------------|
D| |--12----15--14-------------------|---------------------------------|
A| |12-------------------------------|--------------------------------o|
E| |---------------------------------|---------------------------------|

 _________________
|Outro (3:26-3:50)|
|_________________|

Guitar 2
e| |---------------------------------|---------------------------------|
B| |17--17--15--15--17--17--15--15---|17--17--15--15--17--17--15--15---|
G| |---------------------------------|---------------------------------|
D| |--14--14--12--12--14--14--12--12-|--14--14--12--12--14--14--12--12-|
A| |---------------------------------|---------------------------------|
E| |---------------------------------|---------------------------------|
     Softly soaring through my atmosphere                     A melody

Guitar 2
e| |---------------------------------|---------------------------------|
B| |17--17--15--15--17--17--15--15---|17--17--15--15--17--17--15--15---|
G| |---------------------------------|---------------------------------|
D| |--14--14--12--12--14--14--12--12-|--14--14--12--12--14--14--12--12-|
A| |---------------------------------|---------------------------------|
E| |---------------------------------|---------------------------------|
     Softly soaring through my atmosphere                     A melody

Guitar 2
e| |---------------------------------|---------------------------------|
B| |17--17--15--15--17--17--15--15---|---------------------------------|
G| |---------------------------------|---------------------------------|
D| |--14--14--12--12--14--14--12--12-|---------------------------------|
A| |---------------------------------|---------------------------------|
E| |---------------------------------|---------------------------------|
     Softly soaring through my atmosphere

-------------------------------------------------------------------------
                       Summer Skin
-------------------------------------------------------------------------
this is a powertab so just go to powerabs website and download the free version and look 
it there

---------------------------------------------------------------------------
                       Different Names For The Same Things
---------------------------------------------------------------------------
Intro:
e|--2---2---2---2--||--2---2---2---2---2--|
B|--3---3---3---3--||--3---3---3---3---3--|
G|--2---3---0---2--||--2---1---0---2---2--|
D|--0---0---0---4--||--0---0---0---4---4--|
A|-----------------||---------------------|
E|-----------------||---------------------|

Verse:                                                *
e|--2---2---2---2---2--||--2---2---2---2---2--||--2---2---2---2---2--|
B|--3---3---3---3---3--||--3---3---3---3---3--||--3---3---3---3---3--|
G|--2---3---0---2---2--||--2---3---0---2---2--||--2---1---0---2---2--|
D|--0---0---0---4---4--||--0---0---0---4---4--||--0---0---0---4---4--|
A|---------------------||---------------------||---------------------|
E|---------------------||---------------------||---------------------|

Chorus:
e|--2---2---3---2--|
B|--3---2---0---3--|
G|--4---2---0---2--|
D|--4---4---0---0--|
A|--2---4---2------|
E|------2---3------|
   Bm  F#m  G   D

-----------------------------------------------------------------------------
                           I Will Follow You Into the Dark
-----------------------------------------------------------------------------
Guitar (Capo 5)

E||------------------------------|--------------------------------|
B||-------1-------------1--------|-------1--------------1-------1-|
G||----------2---2---------0---0-|----------2---2-----0-------0---|
D||-----2------2------2------2---|------------3-----2-------0-----|
A||--0-------------3-------------|-----3----------3-------2-------|
E||------------------------------|--1-----------------------------|

------------------------------|------------------------------|
-------1-------------1--------|-------3-------------3--------|
----------2---2---------0---0-|----------0-------------0-----|
-----2------2------2------2---|------------0-------------0---|
--0-------------3-------------|-----2--------2----2--------2-|
------------------------------|--3-------------3-------------|

------------------------------|--------------------------------|
-------1-------------1--------|----------------------1-------1-|
----------2---2---------0---0-|-------1------------2-------0---|
-----2------2------2------2---|----------2---2---2-------0-----|
--0-------------3-------------|-----2------2---0---------------|
------------------------------|--0---------------------3-------|

-----------------------------|------------------------------|
-------1--------1------------|-------1-------------1--------|
----------2---2-1------1-----|----------0---0---------0---0-|
------------3---3---3----3---|-----2------2------2------2---|
-----3----------3----------3-|--3-------------3-------------|
--1-------------1------------|------------------------------|

|-------------------------------|------------------------------|
|--------1-------------1--------|-------1-------------1--------|
|*----------0---0---------0---0-|----------2---2---------2---2-|
|*-----2------2------2------2---|-----2------2------2------2---|
|---3-------------3-------------|--0-------------0-------------|
|-------------------------------|------------------------------|

------------------------------|-------------------------------||
-------1-------------1--------|-------1-------------3---------||
----------2---2---------2---2-|----------0---0---------0-----*||
------------3-------------3---|-----2------2-------------0---*||
-----3-------------3----------|--3----------------2--------2--||
--1-------------1-------------|----------------3--------------||

------------------------------|--------------------------------|
-------1-------------1--------|-------1--------------1-------1-|
----------2---2---------0---0-|----------2---2-----0-------0---|
-----2------2------2------2---|------------3-----2-------0-----|
--0-------------3-------------|-----3----------3-------2-------|
------------------------------|--1-----------------------------|

------------------------------|------------------------------|
-------1-------------1--------|-------3-------------3--------|
----------2---2---------0---0-|----------0-------------0-----|
-----2------2------2------2---|------------0-------------0---|
--0-------------3-------------|-----2--------2----2--------2-|
------------------------------|--3-------------3-------------|

------------------------------|--------------------------------|
-------1-------------1--------|----------------------1-------1-|
----------2---2---------0---0-|-------1------------2-------0---|
-----2------2------2------2---|----------2---2---2-------0-----|
--0-------------3-------------|-----2------2---0---------------|
------------------------------|--0---------------------3-------|

------------------------------|------------------------------|
-------1--------1----1--------|-------1-------------1--------|
----------2---2-1-------1-----|----------0---0---------0---0-|
------------3---3--3------3---|-----2------2------2------2---|
-----3----------3-----------3-|--3-------------3-------------|
--1-------------1-------------|------------------------------|

|-------------------------------|------------------------------|
|--------1-------------1--------|-------1-------------1--------|
|*----------0---0---------0---0-|----------2---2---------2---2-|
|*-----2------2------2------2---|-----2------2------2------2---|
|---3-------------3-------------|--0-------------0-------------|
|-------------------------------|------------------------------|

------------------------------|-------------------------------||
-------1-------------1--------|-------1-------------3---------||
----------2---2---------2---2-|----------0---0---------0-----*||
------------3-------------3---|-----2------2-------------0---*||
-----3-------------3----------|--3----------------2--------2--||
--1-------------1-------------|----------------3--------------||

------------------------------|--------------------------------|
-------1-------------1--------|-------1--------------1-------1-|
----------2---2---------0---0-|----------2---2-----0-------0---|
-----2------2------2------2---|------------3-----2-------0-----|
--0-------------3-------------|-----3----------3-------2-------|
------------------------------|--1-----------------------------|

------------------------------|------------------------------|
-------1-------------1--------|-------3-------------3--------|
----------2---2---------0---0-|----------0-------------0-----|
-----2------2------2------2---|------------0-------------0---|
--0-------------3-------------|-----2--------2----2--------2-|
------------------------------|--3-------------3-------------|

------------------------------|--------------------------------|
-------1-------------1--------|----------------------1-------1-|
----------2---2---------0---0-|-------1------------2-------0---|
-----2------2------2------2---|----------2---2---2-------0-----|
--0-------------3-------------|-----2------2---0---------------|
------------------------------|--0---------------------3-------|

------------------------------|------------------------------|
-------1--------1----1--------|-------1-------------1--------|
----------2---2-1-------1-----|----------0---0---------0---0-|
------------3---3--3------3---|-----2------2------2------2---|
-----3----------3-----------3-|--3-------------3-------------|
--1-------------1-------------|------------------------------|

|-------------------------------|------------------------------|
|--------1-------------1--------|-------1-------------1--------|
|*----------0---0---------0---0-|----------2---2---------2---2-|
|*-----2------2------2------2---|-----2------2------2------2---|
|---3-------------3-------------|--0-------------0-------------|
|-------------------------------|------------------------------|

------------------------------|-------------------------------||
-------1-------------1--------|-------1-------------3---------||
----------2---2---------2---2-|----------0---0---------0-----*||
------------3-------------3---|-----2------2-------------0---*||
-----3-------------3----------|--3----------------2--------2--||
--1-------------1-------------|----------------3--------------||

------------------------------|------------------------------|
-------1-------------1--------|-------1-------------1--------|
----------1---1---------1---1-|----------1---1---------1---1-|
------------3-------------3---|------------3-------------3---|
-----3-------------3----------|-----3-------------3----------|
--1-------------1-------------|--1-------------1-------------|

------------------------------|--------------------------------|
-------1-------------1--------|-------1--------------1-------1-|
----------2---2---------0---0-|----------2---2-----0-------0---|
-----2------2------2------2---|------------3-----2-------0-----|
--0-------------3-------------|-----3----------3-------2-------|
------------------------------|--1-----------------------------|

------------------------------|------------------------------|
-------1-------------1--------|-------3-------------3--------|
----------2---2---------0---0-|----------0-------------0-----|
-----2------2------2------2---|------------0-------------0---|
--0-------------3-------------|-----2--------2----2--------2-|
------------------------------|--3-------------3-------------|

------------------------------|--------------------------------|
-------1-------------1--------|----------------------1-------1-|
----------2---2---------0---0-|-------1------------2-------0---|
-----2------2------2------2---|----------2---2---2-------0-----|
--0-------------3-------------|-----2------2---0---------------|
------------------------------|--0---------------------3-------|

------------------------------|------------------------------|
-------1--------1----1--------|-------1-------------1--------|
----------2---2-1-------1-----|----------0---0---------0---0-|
------------3---3--3------3---|-----2------2------2------2---|
-----3----------3-----------3-|--3-------------3-------------|
--1-------------1-------------|------------------------------|

--------------------|-------------------||
--1--------1--------|--1----------------||
--2--------1--------|--0----------------||
--3--------3--------|--2----------------||
--3--------3--------|--3----------------||
--1--------1--------|-------------------||

Death Cab for Cutie- Your Heart is an Empty Room

This is my first tab. Hopefully everyone finds it as close to the record version as I
did. Thanks for looking!

Chords:
C- 032010
Em-022000
Am-002200
Fmaj7- 033210


Verse 1:

C        Em              Am         Em     Fmaj7
Burn it down till the embers smoke on the ground

C         Em             Am         Em     Fmaj7
And start new when your heart is an empty room

      Am            Em      Fmaj7
With walls of the deepest blue

C        Em           Am       Em     Fmaj7
Home's face: how it ages when you're away

C         Em           Am       Em        Fmaj7
Spring blooms and you find the love that's true

         Am          Em        Fmaj7
But you don't know what now to do

             Am     Em      Fmaj7
Cause the chase is all you know

          Am              Em   Fmaj7
And she stopped running months ago


Chorus:

C  Fmaj7     C      Fmaj7       C       Am       Em        Fmaj7
And all you see is where else you could be when you're at home

C  Fmaj7     C      Fmaj7       C       Am        Em        Fmaj7
Out on the street are so many possibilities to not be alone


Verse 2:

      C        Em             Am      Em     Fmaj7
The flames and smoke climbed out of every window

    C        Em             Am      Em     Fmaj7
And disappeared with everything that you held dear

         Am          Em    Fmaj7
And you shed not a single tear

          Am            Em      Fmaj7
for the things that you didn't need


           Am              Em    Fmaj7
Cause you knew you were finally free


Chorus:

C  Fmaj7     C      Fmaj7       C       Am        Em        Fmaj7
Cause all you see is where else you could be when you're at home

C  Fmaj7     C      Fmaj7       C       Am        Em        Fmaj7
Out on the street are so many possibilities to not be alone

Chorus:

Chorus:

C  Fmaj7     C      Fmaj7       C       Am        Em        Fmaj7
And all you see is where else you could be when you're at home

C  Fmaj7     C      Fmaj7       C       Am        Em        Fmaj7
Out on the street are so many possibilities to not be alone

Someday You Will Be Loved
Death Cab for Cutie
Plans
EADGBe
Capo 2

Verse 1
Em             G           C           Em
I once knew a girl in the years of my youth
Em                 G         D
With eyes like the summer of beauty and truth
Em                   G     C                  Em
But in the morning I fled; left a note and it read
    Em      B7       Em
Someday you will be loved


Verse 2
Em         G            C        Em
I can not pretend that I felt any regret
Em                 G         D
Cause each broken heart will eventually mend
Em                   G          C           Em
As the blood runs red down the needle and thread
    Em      B7       Em
Someday you will be loved


Chorus
Em                         G
You’ll be loved, you’ll be loved
         C          Em
Like you never have known
        Em          G            D
And the memories of me will seem more like bad dreams
       Em        G            C       Em
Just a series of blurs like I never occurred
    Em      B       Em
Someday you will be loved


Verse 3
Em             G           C           Em
You may feel alone when you’re falling asleep
Em                 G         D
And every time tears roll down your cheeks
Em                   G             C               Em
But I know your heart belongs to someone you’ve yet to meet
    Em      B7       Em
Someday you will be loved


Chorus
Em                         G
You’ll be loved, you’ll be loved
         C          Em
Like you never have known
        Em          G            D
And the memories of me will seem more like bad dreams
       Em        G            C       Em
Just a series of blurs like I never occurred
    Em      B7       Em
Someday you will be loved

Chorus
Em                         G
You’ll be loved, you’ll be loved
         C          Em
Like you never have known
        Em          G            D
And the memories of me will seem more like bad dreams
       Em        G            C       Em
Just a series of blurs like I never occurred
    Em      B7       Em
Someday you will be loved
    Em      B7       Em
Someday you will be loved

Crooked Teeth
From the album "Plans"
Death Cab For Cutie
Tabbed By galateastilstone

Standard Tunning, Capo 2nd fret

Verse chords: Em7 - 022030 A7 - x02020 C - x35050 G - 3550-----------------------------|0x
Pre-Chorus Chords: Em - 075000 Em7maj - 065000 G6/E or Em7 - 055000 A7 - x02020--------|
Pre-Chorus Chords (alt.): Em - 022000 Em7maj - 021000 G6/E or Em7 - 020000 A7 - x02020-|
Chorus Chords: C - 33555x G - 355433 D - 5577------------------------------------------|7x
Bridge Chords: A7 - x02020 B7 - x24242 Em7 - 022003 or 022033--------------------------|
(using the more common versions of some of these chords works just as well, but DCFC
plays it with these)

Em7  A7  C            G             Em7 A7        C      G
It   was one hundred degrees, as we sat beneath a willow tree,
      Em7          A7              C           G        Em7        A7       C    G
Who's tears didn't care, they just hung in the air, and refused to fall, to fall.

(base comes in , same chord sequence)
Em7      A7            C        G
   And I knew I'd made horrible call,
   Em7          A7                   C      G
And now the state line felt like the Berlin wall,
          Em7    A7                C          G
And there was no doubt about which side I was on. Hmmm.....

[Em] [Em7Maj] [G6/E] [Em7Maj] [Em] [Em7Maj] [G6/E] [A7]
(Pre-chorus)
E----------------------------------|--------------------------------|-------------|
B---5-----5-------4-------4--------|--3------3------4------4-------|--5-----5-----|
G------4------4-------4-------4----|------4------4------4------4---|-----4-----4--|
D----------------------------------|--------------------------------|-------------|
A----------------------------------|--------------------------------|-------------|
E----------------------------------|--------------------------------|-------------|

------------------|
-4------4---------|
-----4------4-----|
------------------|
------------------|
------------------|

           Cause I built you a home in my heart,          With rotten wood,
E----------------------------------|
B---3-----3------2--------2--------|
G------4-----4--------2-------2----|
D----------------------------------|
A----------------------------------|
E----------------------------------|
 ...It decayed from the start

C         G                   D         -|
Cause you can't find nothing at all,     |
If there was nothing there all along.    |-- CHORUS
No you can't find nothing at all,        |
If there was nothing there all along.   -|

Bass fill.....

Em7      A7       C          G
       I braved treacherous streets,
And kids strung out on homemade speed.
And we shared a bed in which I could not sleep,
At all, woo, hoo, woo, hooOoOo.

Em7      A7        C        G
Cause at night the sun in retreat,
Made the skyline look like crooked teeth,
In the mouth of a man who was devouring, us both.

(same as other Pre-chorus, but 2-2 instead of 3-4 on second part)
You're so cute when you're slurring your speech,
But they're closing the bar and they want us to leave.

CHORUS

(padding)
A7            B7
I'm a war, of head versus heart,
          Em7        A7
And it's always this way.
   A7               B7
My head is weak, my heart always speaks,
Em7                       C     G    D
Before I know what it will say.

CHORUS

Death Cab For Cutie - "What Sarah Said"
Plans

this song is amazing yet apparently no one with ears has tried tabbing it.
please oh please transcribe this into piano yourself, its incredibly easy
and so rewarding, even if you dont play piano

standard tuning

--------12-------12-------12-------12----------------------------|
------8--------8--------8--------8-------------------------------|
---10-------10-------10-------10---------------------------------|
-----------------------------------------------------------------|
-----------------------------------------------------------------|
-----------------------------------------------------------------|

--------10-------10-------10-------10----------------------------|
------8--------8--------8--------8-------------------------------|
----9--------9--------9--------9---------------------------------|
-----------------------------------------------------------------|
-----------------------------------------------------------------|
-----------------------------------------------------------------|

--------8--------8--------8--------8-----------------------------|
------8--------8--------8--------8-------------------------------|
----7--------7--------7--------7---------------------------------|
-----------------------------------------------------------------|
-----------------------------------------------------------------|
-----------------------------------------------------------------|

--------7--------6--------7--------6-----------------------------|
------7--------7--------7--------7-------------------------------|
----5--------5--------5--------5---------------------------------|
-----------------------------------------------------------------|
-----------------------------------------------------------------|
-----------------------------------------------------------------|

do that a few times then the guitar comes in...

   F          G         Am          C

---1----------3----------0----------0----------------------------|
---1----------3----------1----------1----------------------------|
---2----------0----------2----------0----------------------------|
---3----------0----------2----------2----------------------------|
---3----------2----------0----------3----------------------------|
---1----------3--------------------------------------------------|

(you could barre all those but i think they sound better open)

then it repeats all that forever with the FGBCAG bass line over and over
it does have some chorus or bridge or something different but you can go
figure it out if its that important

-----------------------------------------------------------------------------
                           Brothers On A Hotel Bed
-----------------------------------------------------------------------------
Intro

|-----6----------3----------6----------3--3-------|
|--4----6----4-----------4----6----4----------4-6-|
|--5-----------3---5-----5-----------3----5-------|
|--5------5--------------5------5-----------------|
|---------3----6----------------3----6------------|
|--4-----------------4---4----------------4-------|


|-----6----------3---------------------3--3----------------------|
|--4----6----4-----------4--4-6----4-----------6----4----4-------|
|--5-----------3---5-----5-----------3----5----7---------5--3--5-|
|--5------5-------(5)----5------5-------------------1----------5-|
|---------3----6----------------3----6--------------2----3-------|
|--4-----------------4---4----------------4----6-----------------|


|-----6----------3----------6----------3--3--|-----|
|--4----6----4-----------4----6----4---------|-4-6-|
|--5-----------3---5-----5-----------3----5--|-----|
|--5------5--------------5------5------------|-----|
|---------3----6----------------3----6-------|-----|
|--4-----------------4---4----------------4--|-----|


Verse
|-----6----------3------|
|--4----6----4----------|
|--5-----------3---5----|
|--5------5-------------|
|---------3----6--------|
|--4-----------------4--|
You may tire of me
as our December sun is setting
'Cause I'm not who I used to be


---------------3--3-------|-----|
-4--4-6----4-----------6--|-----|
-5-----------3----5----7--|--3--|
-5------5-----------------|-----|
--------3----6------------|-----|
-4----------------4----6--|-----|
No longer easy on the eyes
These wrinkles masterfully disguise
The youthful boy below

|-----6----------3-----|--------|
|--4----6----4---------|----6-8-|
|--5-----------3---5---|--7-----|
|--5------5------------|--------|
|---------3----6-------|--------|
|--4-----------------4-|--------|
who turned your way and saw
Something he was not looking for
Both a beginning and an end

---------------3--3----------|------|
-4--4-6----4-----------6---4-|--6-8-|
-5-----------3----5----7---5-|------|
-5------5--------------------|------|
--------3----6-------------3-|------|
-4----------------4----6-----|------|
But now he lives inside someone he does not recognize
When he catches his reflection on accident


|-----6----------3-----|-------|
|--4----6----4---------|---4-6-|
|--5-----------3---5---|-5-----|
|--5------5-------(5)--|-------|
|---------3----6-------|-------|
|--4-----------------4-|-------|

Verse 2
|-----6----------3------|
|--4----6----4----------|
|--5-----------3---5----|
|--5------5-------(5)---|
|---------3----6--------|
|--4-----------------4--|
On the back of a motor bike
With your arms outstretched trying to take flight
Leaving everything behind


----6----------3--3------|------|
-4----6----4-----------6-|--8---|
-5-----------3----5----7-|------|
-5------5----------------|------|
--------3----6-----------|------|
-4----------------4----6-|------|
But even at our swiftest speed
We couldn't break from the concrete
In the city where we still reside

|-----6----------3-----|-------|
|--4----6----4---------|---6-8-|
|--5-----------3---5---|-7-----|
|--5------5-------(5)--|-------|
|---------3----6-------|-------|
|--4-----------------4-|-------|
And I have learned
That even landlocked lovers yearn
For the sea like navy men

---------------3--3------------|
-4--4-6----4-----------6-------|
-5-----------3----5----7-------|
-5------5----------------------|
--------3----6-----------------|
-4----------------4----6-------|
'Cause now we say goodnight
From our own separate sides
Like brothers on a hotel bed

-3-3-3-1---3-------------------|
---------4---------------------|
-------------------------------|
-------------------------------|
-------------------------------|  x3
-3-----------4-----------------|
Like brothers on a hotel bed


-3-3-3-1---3------------1-3----|
---------4---------1-3---------|
-------------------------------|
-------------------------------|
-------------1-----------------|
-3-----------------------------|
Like brothers on a hotel bed


Interlude
-----------3--3------------------------|
-4---3--6--------------4---4---6---4---|
-5---5--------5--------5---5---5---5---|
---------------------------------------|
-----3---------------------3---6-------|
-4------------4--------4-----------4---|

Outro
|-----6----------3------|
|--4----6----4----------|
|--5-----------3---5----|
|--5------5-------(5)---|
|---------3----6--------|
|--4-----------------4--|
You may tire of me as our december sun is setting
'Cause I'm not who I used to be

----------------------------------------------------------------------------
                  Stable Song
----------------------------------------------------------------------------
Intro pt. I x2
e--3--3--3-|
B--3--3--3-|
G--0--0--x-|
D--0--x--2-|
A--x--3--0-|
E--3--x--x-|

Intro pt.II x 2
e--3--3--2--3--3-|
B--3--3--3--3--3-|
G--0--0--0--0--0-|
D--0--0--x--x--x-|
A--x--x--2--2--3-|
E--3--2--0--0--x-|

Verse
"Time for the..."
e--3--3--3-|
B--3--3--3-|
G--0--0--x-|
D--0--x--2-|
A--x--3--0-|
E--3--x--x-|

Verse
"all our stable mates highway bound "
e--3--3--2--3--3-|
B--3--3--3--3--3-|
G--0--0--0--0--0-|
D--0--0--x--x--x-|
A--x--x--2--2--3-|
E--3--2--0--0--x-|

Verse
'give us our measly sum "
e--3--3--3-|
B--3--3--3-|
G--0--0--x-|
D--0--x--2-|
A--x--3--0-|
E--3--x--x-|

Verse
"starting out with nothing but crippling doubt "
e--3--3--2--3--3-|
B--3--3--3--3--3-|
G--0--0--0--0--0-|
D--0--0--x--x--x-|
A--x--x--2--2--3-|
E--3--2--0--0--x-|

Chorus
"we'll rest easy (justified)"
e--3--3--3-|
B--3--3--3-|
G--0--0--x-|
D--0--x--2-|
A--x--3--0-|
E--3--x--x-|


*Second Verse is exactly the same

Bridge
"But I won't mind"
e--3--3--3-|
B--2--3--3-|
G--3--0--0-|
D--0--x--0-|
A--0--3--x-|
E--x--x--3-|


Outro
"we'll rest easy (justified)"
e--3--3--3--3-|
B--3--3--3--3-|
G--0--0--x--0-|
D--0--x--2--0-|
A--x--3--0--x-|
E--3--x--x--3-|<<
comments
We did not receive enough feedback on this tab! Please rate:
print report bad tab
1 2 3 4 5
2 comments total.
0 reply
saved by music wrote on July 10 2008, 04:15 pm

thank you. but brothers on a hotel bed should not even be played or transcribed on guitar. (:

0 reply
elvishpresley wrote on August 7 2008, 10:23 am

hey. this is the yoda guy. ultimate guitar screwed my profile so if you need to ask anything, this is me

I want to post or [tab]
guest
You may want to rate the tab now too:
select rating
Please do not post tabs as comments. Select "correction" instead!