Oops, an error
Loading. Please wait.

Transatlanticism Tab

ver1
ver1

Album

Whole song

More versions @911Tabs.com
6,294 views 94 this week
no commentswrite comment
1 2 3 4 5
excellent!
x 3
Autoscroll
+/-
esc
set tempo
stop
Difficulty
intermediate
WARNING: You are trying to view
                                    content from Ultimate-Guitar.com
                                    in an unauthorized application,
                                    which is prohibited.

                                    Please use an official Ultimate
                                    Guitar Tabs application for iPhone,
                                    iPad or Android to access legitimate
                                    chords, guitar, bass, and drum tabs
                                    from Ultimate-Guitar.com database.

                                    Type "ultimate guitar tabs" in Apple
                                    App Store's or Android Market's
                                    search to find the application.
TRANSATLANTICISM

01 THE NEW YEAR
02 LIGHTNESS
03 TITLE AND REGISTRATION
04 EXPO 86
05 THE SOUND OF SETTLING
06 TINY VESSELS
07 TRANSATLANTICISM
08 PASSENGER SEAT
09 DEATH OF AN INTERIOR DECORATOR
10 WE LOOKED LIKE GIANTS
11 A LACK OF COLOR


THE NEW YEAR
_______________________________________________________________________________

CAPO: 1st Fret

INTRO:

Guitar 1
e|----------------------------------------------0-----0----------------------|
B|-5----5-5--5--5---5-5-----------5-5--5--5---5-5---5s7---7s5s3--------------|
G|-7----7-7---7---7-7-7-----------7-7---7---7-7-7----------------------------|
D|-7----7-7-7--7----7-7-----------7-7-7--7----7-7----------------------------|
A|-5----5-5---------x-x-----------5-5---------x-x----------------------------|
E|------------------7-7-----------------------7-7----------------------------|

e|----------------------------------------------0-----0----------------------|
B|--5-5--5--5---5-5--5s7s5-0--5-5--5--5---5-5---5s7---7s5s3------------------|
G|--7-7---7---7-7-7-----------7-7---7---7-7-7--------------------------------|
D|--7-7-7--7----7-7-----------7-7-7--7----7-7--------------------------------|
A|--5-5---------x-x-----------5-5---------x-x--------------------------------|
E|--------------7-7-----------------------7-7--------------------------------|

VERSE:

Guitar 1
e|----------------------------------------------0-----0----------------------|
B|--5-5--5--5---5-5-----------5-5--5--5---5-5---5s7---7s5s3------------------|
G|--7-7---7---7-7-7-----------7-7---7---7-7-7--------------------------------|
D|--7-7-7--7----7-7-----------7-7-7--7----7-7--------------------------------|
A|--5-5---------x-x-----------5-5---------x-x--------------------------------|
E|--------------7-7-----------------------7-7--------------------------------|
       So this is the new year. And i don't feel any different.

Guitar 1
e|---------------------------------------------------------------------------|
B|--5-5--5--5---5-5--5s7s5-0--5-5--5--5---5-5--------------------------------|
G|--7-7---7---7-7-7-----------7-7---7---7-7-7--------------------------------|
D|--7-7-7--7----7-7-----------7-7-7--7----7-7--------------------------------|
A|--5-5---------x-x-----------5-5---------x-x--------------------------------|
E|--------------7-7-----------------------7-7--------------------------------|
        The clanking of crystal Explosions off in the distance.              ||
                                                                             ||
Guitar 2                                                                     ||
e|--2-2----------------------------------------------------------------------|
B|--3-3--14-14-14-14-15-------------17-17-17-17-------------14-14-14-15------|
G|--2-2-----------------14-14-14-14-------------14-14-14-14------------------|
D|--0-0----------------------------------------------------------------------|
A|---------------------------------------------------------------------------|
E|---------------------------------------------------------------------------|

e|---------------------------------------------------------------------------|
B|-----------17-17-17----------14-14-14-14-15-----------------14-14-14-14----|
G|--14-14-14----------14-14-14----------------14-14-14-14--14----------------|
D|---------------------------------------------------------------------------|
A|---------------------------------------------------------------------------|
E|---------------------------------------------------------------------------|

e|---------------------------------------------------------------------------|
B|--------------14-14-14-15--------------------------------------------------|
G|--14-14-14-14-------------14-14-14-----------------------------------------|
D|---------------------------------------------------------------------------|
A|---------------------------------------------------------------------------|
E|---------------------------------------------------------------------------|


BRIDGE:

Guitar 1:
e|---------------------------------------------------------------------------|
B|----0----------------------------------------------------------------------|
G|----0----------2------------------------6--------7s3-----------------------|
D|----0------------4-------0-------7----7---7----7---------------------------|
A|--2-2--2-2-0-----------4---4---4----0--------0-----------------------------|
E|--3-3--3-----3-------5-------5---------------------------------------------|

Guitar 2 plays 
G' 320400
and
A' 002230

VERSE:

Guitar 1
e|----------------------------------------------0-----0----------------------|
B|--5-5--5--5---5-5-----------5-5--5--5---5-5---5s7---7s5s3------------------|
G|--7-7---7---7-7-7-----------7-7---7---7-7-7--------------------------------|
D|--7-7-7--7----7-7-----------7-7-7--7----7-7--------------------------------|
A|--5-5---------x-x-----------5-5---------x-x--------------------------------|
E|--------------7-7-----------------------7-7--------------------------------|
       So this is the new year And I have no resolutions                     ||
                                                                             ||
Guitar 2                                                                     ||
e|--2-2----------------------------------------------------------------------|
B|--3-3--14-14-14-14-15-------------17-17-17-17-------------14-14-14-15------|
G|--2-2-----------------14-14-14-14-------------14-14-14-14------------------|
D|--0-0----------------------------------------------------------------------|
A|---------------------------------------------------------------------------|
E|---------------------------------------------------------------------------|

e|---------------------------------------------------------------------------|
B|-----------17-17-17----------14-14-14-14-15-----------------14-14-14-14----|
G|--14-14-14----------14-14-14----------------14-14-14-14--14----------------|
D|---------------------------------------------------------------------------|
A|---------------------------------------------------------------------------|
E|---------------------------------------------------------------------------|

e|---------------------------------------------------------------------------|
B|--------------14-14-14-15--------------------------------------------------|
G|--14-14-14-14-------------14-14-14-----------------------------------------|
D|---------------------------------------------------------------------------|
A|---------------------------------------------------------------------------|
E|---------------------------------------------------------------------------|

Guitar 1
e|---------------------------------------------------------------------------|
B|--5-5--5--5---5-5--5s7s5-0--5-5--5--5---5-5--------------------------------|
G|--7-7---7---7-7-7-----------7-7---7---7-7-7--------------------------------|
D|--7-7-7--7----7-7-----------7-7-7--7----7-7--------------------------------|
A|--5-5---------x-x-----------5-5---------x-x--------------------------------|
E|--------------7-7-----------------------7-7--------------------------------|
        For self assigned penance For problems with easy solution.           ||
                                                                             ||
Guitar 2                                                                     ||
e|--2-2----------------------------------------------------------------------|
B|--3-3--14-14-14-14-15-------------17-17-17-17-------------14-14-14-15------|
G|--2-2-----------------14-14-14-14-------------14-14-14-14------------------|
D|--0-0----------------------------------------------------------------------|
A|---------------------------------------------------------------------------|
E|---------------------------------------------------------------------------|

e|---------------------------------------------------------------------------|
B|-----------17-17-17----------14-14-14-14-15-----------------14-14-14-14----|
G|--14-14-14----------14-14-14----------------14-14-14-14--14----------------|
D|---------------------------------------------------------------------------|
A|---------------------------------------------------------------------------|
E|---------------------------------------------------------------------------|

e|---------------------------------------------------------------------------|
B|--------------14-14-14-15--------------------------------------------------|
G|--14-14-14-14-------------14-14-14-----------------------------------------|
D|---------------------------------------------------------------------------|
A|---------------------------------------------------------------------------|
E|---------------------------------------------------------------------------|
 

BRIDGE 2:

Guitar 2:
G 3x0032
A 002230

   G
So everybody put your best suit or dress on
A
Let's make believe that we are wealthy for just this once
 G
Lighting firecrackers off on the front lawn
A
As thirty dialogs bleed into one

Guitar 1 comes in
e|---------------------------------------------------------------------------|
B|----0----------------------------------------------------------------------|
G|----0----------2------------------------6--------7s3-----------------------|
D|----0------------4-------0-------7----7---7----7---------------------------|
A|--2-2--2-2-0-----------4---4---4----0--------0-----------------------------|
E|--3-3--3-----3-------5-------5---------------------------------------------|

  G
I wish the world was flat like the old days
  A
Then i could travel just by folding a map
  G
No more airplanes, or speed trains, or freeways
   A
There'd be no distance that could hold us back.


There'd be no distance that could hold us back [x2]


Guitar 1 Variation (while Guitar 2 plays G and A)
e|------------------------------------0--------------------------------------|
B|----0------------------------7----7----------------------------------------|
G|----0----------2----------------6-------7s2--------------------------------|
D|----0------------4-----2s7----7-------7------------------------------------|
A|--2-2--2-2-0---------0-----------------------------------------------------|
E|--3-3--3-----3-------------------------------------------------------------|


OUTRO:

Guitar 1 and 2
e|----------------------------------------------0-----0----------------------|
B|--5-5--5--5---5-5-----------5-5--5--5---5-5---5s7---7s5s3------------------|
G|--7-7---7---7-7-7-----------7-7---7---7-7-7--------------------------------|
D|--7-7-7--7----7-7-----------7-7-7--7----7-7--------------------------------|
A|--5-5---------x-x-----------5-5---------x-x--------------------------------|
E|--------------7-7-----------------------7-7--------------------------------|
         So this is the new year   So this is the new year
e|-----------------------5--5----------------------------------0-------------|
B|--5-5--5--5---5-5-------5--5----5-5--5--5---5-5--5s7s5-0-----0-------------|
G|--7-7---7---7-7-7---------------7-7---7---7-7-7--------------2-------------|
D|--7-7-7--7----7-7---------------7-7-7--7----7-7--------------2-------------|
A|--5-5---------x-x---------------5-5---------x-x--------------0-------------|
E|--------------7-7---------------------------7-7----------------------------|
        So this is the new year        So this is the new year



LIGHTNESS
_______________________________________________________________________________

CAPO: 5th Fret


VERSE:

 C                      D                       Em
There's a tear in the fabric of your favorite dress
                     G
And I'm sneaking glances.
C                             D
Looking for the patterns in static
                     Em                 G
They start to make sense the longer I'm at it.


CHORUS:

C       D
Ivory lines lead
       Em         G
Oo wha-ho, oo wha-ho


Guitar 1
e|---------------------------------------------------------------------------|
B|--------------------------------------------------------1------------------|
G|--------0----------0-------------0----------0-----------0------------------|
D|----5-----5----5-----5-------5-----5----5-----5---------2------------------|
A|--2---2------3---3---------2---2------3---3-------------3------------------|
E|-----------------------3------------------------3--------------------------|
 

VERSE:

Your heart is a river that flows from your chest
Through every organ
C
 Your brain is the dam
And I am the fish who can't reach the cord.



CHORUS:

Guitar 1
e|---------------------------------------------------------------------------|
B|----------0-------------3--------------------------------------------------|
G|----0-2-----------0----------0---------------------------------------------|
D|----------------4----------------------------------------------------------|
A|--3-----3----5-------------------------------------------------------------|
E|---------------------------------------------------------------------------|
   Ivory      lines lead  Oo wha-ho, oo wha-ho

e|---------------------------------------------------------------------------|
B|---------------------------------------------------------------------------|
G|--------0----------0-------------0----------0------------------------------|
D|----5-----5----5-----5-------5-----5----5-----5----------------------------|
A|--2---2------3---3---------2---2------3---3--------------------------------|
E|-----------------------3------------------------3--------------------------|
   Oh, instincts are misleading 
   You shouldn't think what you're feeling

e|---------------------------------------------------------------------------|
B|---------------------------------------------------------------------------|
G|--------0----------0----------0----------0---------------------------------|
D|----5-----5----5-----5----5-----5----5-----5-------------------------------|
A|--2---2------3---3------5---5------7---7-----------------------------------|
E|------------------------------------------------3--------------------------| 
   They don't tell you what you know you should want


CHORUS:

C
Ivory  lines lead  
       Em
Oo wha-ho, oo wha-ho


Guitar 1
e|---------------------------------------------------------------------------|
B|----------0-------------3--------------------------------------------------|
G|----0-2-----------0----------0---------------------------------------------|
D|----------------4----------------------------------------------------------|
A|--3-----3----5-------------------------------------------------------------|
E|---------------------------------------------------------------------------|
   Ivory      lines lead  Oo wha-ho, oo wha-ho

Vibraphone (relative to capo)
e|---------------------------------------------------------------------------|
B|--------12--------13--12---------------------------------------------------|
G|-----12--------12-----12---------------------------------------------------|
D|--14--------14-------------------------------------------------------------|
A|---------------------------------------------------------------------------|
E|---------------------------------------------------------------------------|
Oh, instincts are misleading 
You shouldn't think what you're feeling

Guitar 1
e|---------------------------------------------------------------------------|
B|---------------------------------------------------------------------------|
G|--------0----------0----------0----------0---------------------------------|
D|----5-----5----5-----5----5-----5----5-----5-------------------------------|
A|--2---2------3---3------5---5------7---7-----------------------------------|
E|------------------------------------------------3--------------------------| 
   They don't tell you what you know you should want


CHORUS:

Vibraphone
e|---------------------8-7---------------------------------------------------|
B|---0-1---1-3---3-5---------------------------------------------------------|
G|-0-----0-----0-----0-------------------------------------------------------|
D|---------------------------------------------------------------------------|
A|---------------------------------------------------------------------------|
E|---------------------------------------------------------------------------|
   Ivory lines lead  Oo wha-ho, oo wha-ho

C  D     Em  G
Ivory lines lead
        C  D Em G
Oo wha-ho,




TITLE AND REGISTRATION
_______________________________________________________________________________

CAPO: 2nd Fret


INTRO:

Guitar 1:-
e|----------------------------------------------------------------------------|
B|--------------0----------------------0----------------0---3---0---1---0-----|
G|----0---0---2---2--0-------0---0---2---2--0---0-------0-----------------2-0-|
D|--2---2---2----------2---0---0---0----------0---------2---------------------|
A|-----------------------3------------------------3--3--3-3---3---3---3-------|
E|----------------------------------------------------------------------------|

e|----------------------------------------------------------------------------|
B|--------------0----------------------0----------------0---------------------|
G|----0---0---2---2--0-------0---0---2---2--0---0-------0---0-----------------|
D|--2---2---2----------2---0---0---0----------0---------2---------------------|
A|-----------------------3------------------------3--3--3-3-------------------|
E|----------------------------------------------------------------------------|


VERSE:

same as Intro

The glove compartment is inaccurately named
And everybody knows it.
So i'm proposing a swift orderly change.


CHORUS:

Guitar 1
e|---------------------------------------------------------------------------|
B|------0-----0---------0-----0----------0-----1-----------------------------|
G|----0---0-----0-----0---0-----0------0---0-------0-------------------------|
D|----------------0---------------0------------------------------------------|
A|--3-------3------------------------0-------0---0---------------------------|
E|------------------3-------3------------------------------------------------|

Cause behind its door there's nothing to keep my fingers warm
And all i find are souvenirs from better times
Before the gleam of your taillights fading east
To find yourself a better life.


VERSE:

I was searching for some legal document
As the rain beat down on the hood
When i stumbled upon pictures i tried to forget
And that's how this idea was drilled into my head

Cause it's too important
To stay the way it's been


CHORUS:

Guitar 1
e|---------------------------------------------------------------------------|
B|------0-----0---------0-----0----------0-----1-----------------------------|
G|----0---0-----0-----0---0-----0------0---0-------0-------------------------|
D|----------------0---------------0------------------------------------------|
A|--3-------3------------------------0-------0---0---------------------------|
E|------------------3-------3------------------------------------------------|

Guitar 2 (comes in at "no blame") last time skip last chord 
e|----------------------------------------------------------------|
B|--33333333-55555555-88888888------------------------------------|
G|--00000000-00000000-00000000------------------------------------|
D|----------------------------------------------------------------|
A|--22222222----------77777777------------------------------------| 
E|--33333333-55555555-88888888------------------------------------|

There's no blame for how our love did slowly fade
And now that it's gone it's like it wasn't there at all
And here i rest where disappointment and regret collide
Lying awake at night


BRIDGE:

Guitar 2
Em C Am

Vibraphone:
e|---------------------------------7----------------------------------5-7-----|
B|--5-7-8-5-7-8---5------5-7-8-5-8-----5------5-7-8-5-7-8---5---5-7-8---------|
G|--------------5---7----------------5---7----------------5---7---------------|
D|----------------------------------------------------------------------------|
A|----------------------------------------------------------------------------|
E|----------------------------------------------------------------------------|


CHORUS:

Guitar 1 (5 times)
e|----------------------------------------------------------------------------|
B|------0-----0---------0-----0----------0-----1------------------------------|
G|----0---0-----0-----0---0-----0------0---0-------0--------------------------|
D|----------------0---------------0-------------------------------------------|
A|--3-------3------------------------0-------0---0----------------------------|
E|------------------3-------3-------------------------------------------------|

e|-----------------------------------------------------------------|
B|------0----------------------------------------------------------|
G|--------0--------------------------------------------------------|
D|-----------------------------------------------------------------|
A|--3--------------------------------------------------------------| till end
E|-----------------------------------------------------------------|

There's no blame for how our love did slowly fade
And now that it's gone it's like it wasn't there at all
And here i rest where disappointment and regret collide
Lying awake at night (up all night)
When i'm lying awake at night. 



EXPO 86
_______________________________________________________________________________


INTRO:

Guitar 1
e|----------------------------------------------------------------------------|
B|--7----10---9---------------------------------------------------------------|
G|--6-----9---9---------------------------------------------------------------|
D|--------7---7---------------------------------------------------------------|
A|----------------------------------------------------------------------------| 
E|----------------------------------------------------------------------------|

Guitar 2
e|-----------------------------------------------------------------|
B|-----------------------------------------------------------------|
G|-----------------------------------------------------------------|
D|--4-----7---9--11------------------------------------------------|
A|-----------------------------------------------------------------| 
E|-----------------------------------------------------------------|


Guitar 2
e|--------------------0--------------------------------------------|
B|-----------------------------------------------------------------|
G|----1----2-------------------------------------------------------|
D|--------------2--------------------------------------------------|
A|------4----------4-----------------------------------------------| 
E|-0---------4-----------------------------------------------------|


VERSE:

Sometimes i think this cycle never ends
We slide from top to bottom and we turn and climb again
And it seems by the time that i have figured what it's worth
The squeaking of our skin against the steel has gotten worse.


Guitar 1 comes in:
e|---------------------------------------------------------------------------|
B|--9----7----12-------------------------------------------------------------|
G|--9----9--------11/13------------------------------------------------------|
D|------------14-------------------------------------------------------------|
A|-----------------9/11------------------------------------------------------| 
E|---------------------------------------------------------------------------|

But if i move my place in line i'll lose.
And i have waited, the anticipation's got me glued.


CHORUS:

Guitar 1
e|-----------------------------------------------------------------|
B|-----------------------------------------------------------------|
G|--444444444444-6666-888888888888888------------------------------|
D|-----------------------------------------------------------------|
A|--222222222222-4444-666666666666666------------------------------| 
E|------------------------------------0----------------------------|

Guitar 2 plays B

I am waiting for something to go wrong.
I am waiting for familiar resolve.


VERSE:

Sometimes it seems that i don't have the skills to recollect
The twists and turns of plots that turned us from lovers to friends
I'm thinking i should take that volume back up off the shelf
And crack it's weary spine and read to help remind myself

But if i move my place in line i'll lose.
And I have waited, the anticipation's got me glued.


CHORUS

Guitar 1
e|-------------------------------------------------------------------------|
B|-------------------------------------------------------------------------|
G|--444444444444-6666-888888888888-6666-999999999999-11111111--------------|
D|-------------------------------------------------------------------------|
A|--222222222222-4444-666666666666-4444-777777777777--9-9-9-9--------------| 
E|-------------------------------------------------------------------------|

e|-------------------------------------------------------------------------|
B|-------------------------------------------------------------------------|
G|--8888888888888888-444444444444444444444444-13131313-99999999------------|
D|-------------------------------------------------------------------------|
A|--6666666666666666-222222222222222222222222-11111111-77777777------------| 
E|-------------------------------------------------------------------------|

e|-------------------------------------------------------------------------|
B|-------------------------------------------------------------------------|
G|--999999999999-11111111-8888888888888888---------------------------------|
D|-------------------------------------------------------------------------|
A|--777777777777--9-9-9-9-6666666666666666---------------------------------| 
E|-------------------------------------------------------------------------|


Guitar 2 twice:
B (32x) C# (16x) A (16x)

I am waiting for something to wrong
I am waiting for familiar resolve
I am waiting for another repeat
Another diet fed by crippling defeat
And i am waiting for that sense of relief
I am waiting for you to flee the scene
As if you held in your hand the smoking gun
And on the floor lay the one you said you loved.


POST-CHORUS:

Guitar 1 + 2 last chord 16x
e|----------------------------------------------------------------------------|
B|----------------------------------------------------------------------------|
G|--8-888-99-1414141414-99-8-8-888-99-14141414-16161616-13------99999999-13---|
D|----------------------------------------------------------------------------|
A|--6-666-77-1212121212-77-6-6-666-77-12121212-14141414-11(24x)-77777777-11---| 
E|----------------------------------------------------------------------------|
                                                                 * starts to sing

And it's strange
They are basically the same
So i don't ask names anymore.

end on 
E 0709000

VERSE:

Sometimes i think this cycle never ends
We slide from top to bottom and we turn and climb again
And it seems by the time that i have figured what it's worth
The squeaking of our skin against the steel has gotten worse.


THE SOUND OF SETTLING
_______________________________________________________________________________

CAPO: 2nd Fret (Guitar 1)
CAPO: 4th Fret (Guitar 2)


INTRO/VERSE:

Guitar 1
e|--------------------------------------------------------------------------|
B|--------------------------------------------------------------------------|
G|--------------------------------------------------------------------------|
D|--2---2---4---6-----------------------------------------------------------|
A|--4-------6---7/4---4-----7---7-------------------------------------------| 2x 
E|----0---0---0-----2---2/5---5---5-----------------------------------------|
I've got a hunger
Twisting my stomach into knots
That my tongue was tied off


Guitar 1
e|--------------------------------------------------------------------------|
B|--------------------------------------------------------------------------|
G|--------------------------------------------------------------------------|
D|--2---2---4---6-----------------------------------------------------------|
A|--4-------6---7/4---4-----7---7-------------------------------------------| 
E|----0---0---0-----2---2/5---5---5-----------------------------------------|
My brain's repeating                                                        ||
if you've got an impulse let it out                                         ||
But they never make it past my mouth.                                       || 2x
                                                                            ||
Guitar 2                                                                    ||
e|--------------------------------------------------------------------------|
B|--------------------------------------------------------------------------|
G|--4---4---6---7----4---4---------x----------------------------------------|
D|-------------------------------5------------------------------------------|
A|----2---2-4-4-5-5--2-2---2---2--------------------------------------------| 
E|---------------------------3----------------------------------------------|


CHORUS:

Guitar 1
e|--------------------------------------------------------------------------|
B|------------------------------0-0-0-0-------------------------------------|
G|--1-1-1-1111-1-1-1--4-4-4-44--2-2-2-2-------------------------------------|
D|--2-2-2-2222-2-2-2--4-4-4-44--2-2-2-2-------------------------------------|
A|--4-4-4-4442-2-2-20-2-2-2-220-0-0-0-00------------------------------------| 4x
E|------------------0---------0--------0------------------------------------|
Baa bah, this is the sound of settlin                                       ||
Baa bah, baa baa                                                            ||
                                                                            ||
Guitar 2                                                                    ||
e|--------------------------------------------------------------------------|
B|--------------------------------------------------------------------------|
G|-111111111111/9-9-9-999/6-6-6-666/7-7-7-111111111111/9-9-9-999/6-6-6-666--|
D|--------------------------------------------------------------------------|
A|--9-9-9-9-9-9/7-7-7-777/4-4-4-444/5-5-5--9-9-9-9-9-9/7-7-7-777/4-4-4-444--| 
E|--------------------------------------------------------------------------|

e|--------------------------------------------------------------------------|
B|--------------------------------------------------------------------------|
G|--4-4-4-4/7-7-7-7-777/6-6-6-666/2-2-2-22----------------------------------|
D|--------------------------------------------------------------------------|
A|--2-2-2-2/5-5-5-5-555/4-4-4-444/0-0-0-00/2-2-2-2-2-2----------------------| 
E|-----------------------------------------3-3-3-3-3-3----------------------|

e|--------------------------------------------------------------------------|
B|--------------------------------------------------------------------------|
G|--7-7-7-7-777/6-6-6-666/2-2-2-22------------------------------------------|
D|--------------------------------------------------------------------------|
A|--5-5-5-5-555/4-4-4-444/0-0-0-00/2-2-2-2-2-2------------------------------| 
E|---------------------------------3-3-3-3-3-3------------------------------|


INTERLUDE:

Guitar 1
e|--------------------------------------------------------------------------|
B|--------------------------------------------------------------------------|
G|--------------------------------------------------------------------------|
D|--2---2---4---6-----------------------------------------------------------|
A|--4-------6---7/4---4-----7---7-------------------------------------------| 
E|----0---0---0-----2---2/5---5---5-----------------------------------------|
                                                                            ||
Guitar 2                                                                    ||
e|----------2---------------------------------------------------------------|
B|--3---2h3-2--3---3-2---5-2----3-2---3---3-2h3-2-2-2-3---------------------|
G|--2-2-2---2--2-2-2-2-2-2-2--2-2-2-2-2-2-2-2---2-2-2-----------------------|
D|--4-2-2h4-2--4-2-4-2-2-4-2--2-4-2-2-4-2-4-2h4-2-2-2-4---------------------|
A|----4----------4------------4-----4---4-----------4-----------------------| 
E|--------------------------------------------------------------------------|


VERSE:

Guitar 1
e|--------------------------------------------------------------------------|
B|--------------------------------------------------------------------------|
G|--------------------------------------------------------------------------|
D|--2---2---4---6-----------------------------------------------------------|
A|--4-------6---7/4---4-----7---7-------------------------------------------| 
E|----0---0---0-----2---2/5---5---5-----------------------------------------|
Our youth is fleeting                                                       ||
Old age is just around the bend                                             ||
And i can't wait to go grey                                                 || 4x
And i'll sit and wonder                                                     ||
Of every love that could've been                                            ||
If i'd only thought of something charming to say                            ||
                                                                            ||
Guitar 2                                                                    ||
e|--------------------------------------------------------------------------|
B|--------------------------------------------------------------------------|
G|--4---4---6---7----4---4--------------------------------------------------|
D|-------------------------------5-0----------------------------------------|
A|----2---2-4-4-5-5--2-2---2---2--------------------------------------------| 
E|---------------------------3----------------------------------------------|

Guitar 2 comes in at "ans i cant wait to go grey":
e|-------------------------------|------------------------------------------|
B|--02-3--2----------------------|------------------------------------------|
G|-----------4/2------2---4------|-7---7---9---11---7---7-------7-----------|
D|---------------2-4----4---2--0-|---9---9---9----9---9---9---9---9---------|
A|-------------------------------|--------------------------9---------------| 
E|-------------------------------|--------play this part 2x-----------------|

CHORUS
INTERLUDE


OUTRO:

Guitar 1
e|--------------------------------------------------------------------------|
B|--------------------------------------------------------------------------|
G|--------------------------------------------------------------------------|
D|--2---2---4---6-----------------------------------------------------------|
A|--4-------6---7/4---4-----7---7-------------------------------------------| 
E|----0---0---0-----2---2/5---5---5-----------------------------------------|
I've got a hunger twisting my stomach into knots.



TINY VESSELS
_______________________________________________________________________________

Guitar 1: standard
Guitar 2: Drop D

INTRO/VERSE:

Guitar 1
e|--------------------------------------------------------------------------|
B|--------------2-------------2---------------------------------------------|
G|------2---4---------2---4-------------------------------------------------|
D|--4-4---4---4---4-4---4---4-----4---4-7-4---4---4---4---4---4-------------|
A|------------------------------7---7-------7---5---5---4---2---------------| 
E|--------------------------------------------------------------------------|
                                                                            ||
Guitar 2                                                                    ||
e|------0---5---0--------0-------0------------------------------------------|
B|---------------------2-2---2------------2---3---2-------2-------2---------|
G|--2-2-------2---2------------2--------2-----------2---2-----2-----2-------|
D|--4-4---4---4---4--0-0---0---0---0----------------------------------------|
A|------------------------------------0-----0---0-----2-----2---2-----------| 
D|--------------------------------------------------------------------------|

This is the moment that you know
That you told her that you loved her but you don't.
You touch her skin and then you think
That she is beautiful but she don't mean a thing to me.
Yeah, she is beautiful but she don't mean a thing to me.

I spent two weeks in Silverlake
The California sun cascading down my face
There was a girl with light brown streaks
And she was beautiful but she didn't mean a thing to me.
Yeah she was beautiful but she didn't mean a thing to me.


CHORUS:

Guitar 1 & 2
e|--55555555----------------------------------------------------------------|
B|--xxxxxxxx-77777777-1010101010101010-1010101010101010---------------------|
G|--77777777-88888888--9-9-9-9-9-9-9-9--9-9-9-9-9-9-9-9---------------------|
D|--77777777-77777777--7-7-7-7-7-7-7-7--7-7-7-7-7-7-7-7---------------------|
A|--55555555-66666666--7-7-7-7-7-7-7-7--7-7-7-7-7-7-7-7---------------------| 
E|--------------------------------------------------------------------------|
Wanted to believe in all the words that i was speaking
As we moved together in the dark

Guitar 1
e|--------------------------------------------------------------------------|
B|--------------------1010101010101010-1010101010101010---------------------|
G|--77777777-88888888--9-9-9-9-9-9-9-9--9-9-9-9-9-9-9-9---------------------|
D|---------------------7-7-7-7-7-7-7-7--7-7-7-7-7-7-7-7---------------------|
A|--55555555-66666666--7-7-7-7-7-7-7-7--7-7-7-7-7-7-7-7---------------------| 
E|--------------------------------------------------------------------------|
                                                                            ||
Guitar 2                                                                    || 2x
e|--------------------------------------------------------------------------|
B|------------------------7-----7-------------------------------------------|
G|--77777777-88888888-----6-----6-------------------------------------------|
D|------------------------4-----4-----4-4-7-7-11-11-7-----------------------|
A|--55555555-66666666-----4-----4-----4-4-7-7-11-11-7-----------------------| 
D|--------------------4-4---4-4---4-4-----7-7-11-11-7-----------------------|
And all the friends that i was telling
And all the playful misspellings
And every bite i gave you left a mark

Tiny vessels oozed into your neck
And formed the bruises
That you said you didn't want to fade
But they did and so did i that day


VERSE

Guitar 1
e|--------------------------------------------------------------------------|
B|--------------2-------------2---------------------------------------------|
G|------2---4---------2---4-------------------------------------------------|
D|--4-4---4---4---4-4---4---4-----4---4-7-4---4---4---4---4---4-------------|
A|------------------------------7---7-------7---5---5---4---2---------------| 
E|--------------------------------------------------------------------------|
                                                                            ||
Guitar 2                                                                    || 4x
e|------0---0---------------------------------------------------------------|
B|------------------2----2-------2---3---2-------2-------2------------------|
G|--2-2---2---2-2-2----2---2-2-2---2---2---2-2-2---2-2-2---2----------------|
D|--------------------------------------------------------------------------|
A|--------------------------------------------------------------------------| 
D|--------------------------------------------------------------------------|

(singing starts after 2x)
All i see are dark grey clouds
In the distance moving closer with every hour
So when you ask "was something wrong?"
That i think "you're damn right there is but we can't talk about it now.


Guitar 1 goes on and on

Guitar 2:
e|--------5----------0-------0-----------------------------------------------|
B|-----------------2-----2-----------2---2-----2-------2---------------------|
G|-------------------------2-------2---------2-----2-----2-------------------|
D|--4-4-4---4-4--0-0---0---0---0---------------------------------------------|
A|-------------------------------0-----0---2-----2---2-----------------------| 
D|---------------------------------------------------------------------------|
No, we can't talk about it now."


OUTRO:

Guitar 1 plays 1x verse riff then plays the same as guitar 2
Guitar 2:( ) - last chord
e|--5------0-0-----0-0-------------------------------------------------------|
B|-----------2-------2----------2-----(2)------------------------------------|
G|----------------------------2-------(2)------------------------------------|
D|------0--------0-----------------------------------------------------------|
A|------------------------2-2---------(2)------------------------------------| 4x
D|---------------------------------------------------------------------------|



TRANSATLANTICISM
_______________________________________________________________________________


A: 002220
C#m: 446650
D: 554200
F#m: 244222
E: 022100

A                      C#m                     D    F#m
The atlantic was born today and I'll tell you how:
A                      C#m              D    F#m E
The clouds above opened up and let it out.
      A                             C#m                    
I was standing on the surface of a perforated sphere
          D                 F#m   E
When the water filled every hole.
    A                                 C#m                           
And thousands upon thousands made an ocean, 
                     D                F#m E
Making islands where no island should go.

Oh no.


Guitar 1:
A C#m D F#m
A C#m D F#m E

Guitar 2:
e|--2------4-----5----------------------------------------------------------|
B|--3-----------------------------------------------------------------------|
G|--2--2-4---4-6------------------------------------------------------------|
D|--0-----------------------------------------------------------------------|
A|--------------------------------------------------------------------------| 
E|--------------------------------------------------------------------------|


A                      C#m                     D           F#m
Those people were overjoyed; they took to their boats.
A                         C#m                  D           F#m 
I thought it less like a lake and more like a moat. 



Guitar 2 comes in
e|-------4---------4---|---------------------------------|--------------------|
B|----5----5----5----5-|---5---5---5---5---5---5---5---5-|---5---5---5---5----|
G|--6---------7--------|-7---6---7---6---7---6---7---6---|-7---6---6---6------|
D|---------------------|---------------------------------|--------------------|
A|-------play this 2x--|---------------------------------|----play this 4x----| 
E|---------------------|---------------------------------|--------------------|

    A                               C#m                          
The rhythm of my footsteps crossing flood lands to your door have been 
D                F#m
Silenced forever more.
    A                                 C#m
The distance is quite simply much too far for me to row
         D                 F#m    E
It seems farther than ever before

Oh no.


Guitar 2:
e|--2------4-----5----------------------------------------------------------|
B|--3-----------------------------------------------------------------------|
G|--2--2-4---4-6------------------------------------------------------------|
D|--0-----------------------------------------------------------------------|
A|--------------------------------------------------------------------------| 
E|--------------------------------------------------------------------------|


D           A            F#m          E
I need you so much closer (4x)


F#m        C#m            D           E  
I need you so much closer (4x)


Outro:

Guitar 2 together 8x:
D (4x) A (2x) F E

So Come on



PASSANGER SEAT
_______________________________________________________________________________


Guitar 1/Piano
e|----2--------2--------14---------3-2-0-2------------------------------------|
B|--3--------3----------------15----------------------------------------------|
G|------2-0------2-0--2----14----4--------------------------------------------|
D|--0--------0----------------------------------------------------------------|
A|--------------------0----------2--------------------------------------------| 
E|----------------------------------------------------------------------------|

e|----2--------2--------14---------3-2-0-2-0----------------------------------|
B|--3--------3----------------15-------------3--------------------------------|
G|------2-0------2-0--2----14----4--------------------------------------------|
D|--0--------0----------------------------------------------------------------|
A|--------------------0----------2--------------------------------------------| 
E|----------------------------------------------------------------------------|

I roll the window down
And then begin to breathe in
The darkest country road
And the strong scent of evergreen
From the passenger seat as you are driving me home.

Then looking upwards
I strain my eyes and try
To tell the difference between shooting stars and satellites
From the passenger seat as you are driving me home.


CHORUS:

Guitar 1/Piano
e|----------------------------------------------------2-------------------------|
B|----------0-3---------------------2-0-----------------------------------------|
G|--------0-------------0-2-------0-------------0-------2-0---------------------|
D|------0-----------0-4---------0-----------0-4---4-0-------4-2-----------------|
A|----2-----------2-----------2-----------2-------------------------------------| 
E|--3-----------3-----------3-----------3---------------------------------------|
"do they collide?"
I ask and you smile.
With my feet on the dash
The world doesn't matter.


D: x542xxx
D': x543xxx
?: x543xx

A               G            D              G
When you feel embarrassed then i'll be your pride
A               G            D              G
When you need directions then i'll be the guide


D'      G  ? G
For all time.
For all time. 


OUTRO:

First Piano Riff end on D


DEATH OF AN INTERIOR DECORATOR
_______________________________________________________________________________

Standard Tuning


INTRO/VERSE:

Guitar 1
e|--------------------------------------------------------------------------|
B|--3--------------4-4-3----------------------------------------------------|
G|--3--------------3-3-3----------------------------------------------------|
D|--3-----0---3-0--1-1-3----------------------------------------------------|
A|--1---1---1----------1----------------------------------------------------| 
E|----3---------------------------------------------------------------------|

You were the mother of three girls so sweet
Who stormed through your turnstile
And climbed to the street


Guitar 2 comes in:
e|--------------------------------------------------------------------------|
B|--6---6---6---8----10----8----4---4---4---6---6---6-----------------------|
G|----8---8---8---10----10---10---7---7---7---7---7---7---------------------|
D|--------------------------------------------------------------------------| 
A|--------------------------------------------------------------------------| 2x
E|--------------------------------------------------------------------------|

But after conception your body lay cold
And withered through autumn and you found yourself old


CHORUS:

Guitar 1 + 2
e|--------------------------------------------------------------------------|
B|-----1-1------------------------------------------------------------------|
G|-2-2-2-2------------------------------------------------------------------|
D|-3-3-4-4------------------------------------------------------------------|
A|-3-3-5-5------------------------------------------------------------------| 
E|-1-1----------------------------------------------------------------------|

Can you tell me why you have been so sad?


play Verse Riff Gui1 + Gui2 again:

He took a lover on a far away beach
While you arrange flowers and chose color schemes


CHORUS:

Guitar 1
e|--------------------------------------------------------------------------|
B|--3-----1-1-------------1-1-----------------------------------------------|
G|--3-2-2-2-2-3-3-3-3-2-2-2-2-----------------------------------------------|
D|--3-3-3-4-4-3-3-5-5-3-3-4-4-----------------------------------------------|
A|--1-3-3-5-5-1-1-6-6-3-3-5-5-----------------------------------------------| 
E|----1-1-------------1-1---------------------------------------------------|
Can you tell me why you have been so sad?                                   ||
                                                                            ||
Guitar 2                                                                    ||
e|--------------------------------------------------------------------------|
B|-------1-1-----------------------------1-1--------------------------------|
G|--2-2--2-2-------------------------2-2-2-2--------------------------------|
D|--3-3--4-4---0---0---0---0---0---0-3-3-4-4--------------------------------|
A|-----------1---1---0---6---6---6------------------------------------------| 
E|--------------------------------------------------------------------------|


BREAK:

Guitar 1
e|--------------------------------------------------------------------------|
B|--3--------------4-4-3----------------------------------------------------|
G|--3--------------3-3-3----------------------------------------------------|
D|--3-----0---3-0--1-1-3----------------------------------------------------|
A|--1---1---1----------1----------------------------------------------------| 2x
E|----3---------------------------------------------------------------------|

Guitar 2
e|--------------------------------------------------------------------------|
B|--6---6---6---8----10----8----4---4---4---6---6---6-----------------------|
G|----8---8---8---10----10---10---7---7---7---7---7---7---------------------|
D|--------------------------------------------------------------------------| 
A|--------------------------------------------------------------------------| 2x
E|--------------------------------------------------------------------------|


VERSE

Guitar 1
e|------------------------1-------------------------------------------------|
B|---------1-------3--------3----------3------1------4----------------------|
G|----3------3-------3--------3----3-----3------3------3--------------------|
D|--1---1------1-------1---------0---0-----0------0------0------------------|
A|--------------------------------------------------------------------------| 4x
E|--------------------------------------------------------------------------|

Guitar 2
e|--------------------------------------------------------------------------|
B|--15--13------------------------------------------------------------------|
G|-----------12----10---14-15-12--------------------------------------------|
D|--------------------------------------------------------------------------|
A|--------------------------------------------------------------------------| 8x
E|--------------------------------------------------------------------------|

The girls were all there
They traded their vows
The youngest one glared with furrowed brows
They tenderly kissed then cut the cake
The bride then tripped and broke the vase
The one you thought would spend the years
So perfectly placed below the mirror
Arriving late, you clean the debris
And walked into the angry sea


CHORUS:

Guitar 1
e|--3-----------3-----------------------------------------------------------|
B|--4--3--1--3--4--3--1--3-3-3-3-3-3----------------------------------------|
G|--5--3--2--4--5--3--2--3-3-3-3-3-3----------------------------------------|
D|--5--3--3--5--5--3--3--5-5-5-5-5-5----------------------------------------|
A|--3--5--3--5--3--5--3--6-6-6-6-6-6----------------------------------------| 
E|-----3--1--3-----3--1-----------------------------------------------------|
It felt just like falling in love again [x2]                                ||
                                                                            ||
Guitar 2                                                                    ||
e|--------------3--------1-1-1-1-1-1----------------------------------------|
B|-----3--1--3--4--3--1--4-4-4-4-4-4----------------------------------------|
G|-----3--2--4-----3--2--3-3-3-3-3-3----------------------------------------|
D|--------------------------------------------------------------------------|
A|--------------------------------------------------------------------------| 
E|--------------------------------------------------------------------------|



OUTRO:

Guitar 1
e|--------------------------------------------------------------------------|
B|--3--------------4-4-3----------------------------------------------------|
G|--3--------------3-3-3----------------------------------------------------|
D|--3-----0---3-0--1-1-3----------------------------------------------------|
A|--1---1---1----------1----------------------------------------------------| 2x
E|----3---------------------------------------------------------------------|

e|--------------------------------------------------------------------------|
B|-----1-1-3-3---------1-1--------------------------------------------------|
G|-2-2-2-2-3-3-3-3-2-2-2-2-3------------------------------------------------|
D|-3-3-4-4-3-3-5-5-3-3-4-4-3------------------------------------------------|
A|-3-3-5-5-1-1-6-6-3-3-5-5-1------------------------------------------------| 
E|-1-1-------------1-1------------------------------------------------------|


Guitar 2
e|-------13-----------------------------------------------------------------|
B|--------------------------------------------------------------------------|
G|-14-15--------------------------------------------------------------------|
D|--------------------------------------------------------------------------|
A|--------------------------------------------------------------------------| 9x
E|--------------------------------------------------------------------------|

e|-------13-------13--------------------------------------------------------|
B|-------------------------13----13-----------15-------15-------------------|
G|----14-------14-------14----14----14-----15-------15----------------------|
D|-15-------15-------16-----------------17-------17-------------------------|
A|--------------------------------------------------------------------------| 2x 
E|----------------------------------* and here second time------------------|

Can you tell me why you have been so sad?
Can you tell me why you have been so...



WE LOOKED LIKE GIANTS
_______________________________________________________________________________


INTRO:

Guitar 1
e|--------------------------------------------------------------------------|
B|--------------------------------------------------------------------------|
G|--------------------------------------------------------------------------|
D|--------------------------------------------------------------------------|
A|--5-4----9-7--------------------------------------------------------------|3x
E|--------------------------------------------------------------------------|

then

Guitar 1
e|-----------------|----2-2-2-2-2-2-----------------------------------------|
B|----23-2---------|----3-3-2-3-3-2----3-5-3-5------------------------------|
G|--4------2-------|----2-2-2-2-2-2-----------------------------------------|
D|--4--------4-2-4-|--0-----------------------------------------------------|
A|--2--------------|--0--------------0---------0-2-4------------------------|2x
E|-------play 2x---|-----------------0--------------------------------------|

Guitar 2
e|-----------------|--------------------------------------------------------|
B|-------2-2-------|--------------------------------------------------------|
G|-----------4--2--|----2--4-4-2--------------------------------------------|
D|----4------------|--0----------4----2-0-0---------------------------------|
A|--2--------------|----------------0--------4-0-2-4------------------------|2x
E|--------play 2x--|--------------------------------------------------------|

VERSE:
D* 057750

Bm                                                   D*
God bless the daylight, the sugary smell of springtime
                              A
Remembering when you were mine
In a still suburban town

Bm 
When every thursday I'd brave those mountain passes
D*                         A
And you'd skip your early classes
And we'd learn how our bodies worked.


Guitar 1
e|-----------------|----2-2-2-2-2-2-----------------------------------------|
B|----23-2---------|----3-3-2-3-3-2----3-5-3-5------------------------------|
G|--4------2-------|----2-2-2-2-2-2-----------------------------------------|
D|--4--------4-2-4-|--0-----------------------------------------------------|
A|--2--------------|--0--------------0---------0-2-4------------------------| 
E|-------play 2x---|-----------------0--------------------------------------|

Guitar 2
e|-----------------|--------------------------------------------------------|
B|-------2-2-------|--------------------------------------------------------|
G|-----------4--2--|----2--4-4-2--------------------------------------------|
D|----4------------|--0----------4----2-0-0---------------------------------|
A|--2--------------|----------------0--------4-0-2-4------------------------| 
E|--------play 2x--|--------------------------------------------------------|


VERSE:

God damn the black night with all it's foul temptation
I become what I always hated
When I was with you then

We looked like giants in the back of my grey subcompact
Fumbling to make contact
As the others slept inside


Bm
And together there
G
In a shroud of frost, the mountain air
A
   Began to pass from every pane of weathered glass
Bm                    G                      A   F#
And I held you closer than anyone would ever get


Guitar 1
e|-----------------|----2-2-2-2-2-2-----------------------------------------|
B|----23-2---------|----3-3-2-3-3-2----3-5-3-5------------------------------|
G|--4------2-------|----2-2-2-2-2-2-----------------------------------------|
D|--4--------4-2-4-|--0-----------------------------------------------------|
A|--2--------------|--0--------------0---------0-2-4------------------------|2x
E|-------play 2x---|-----------------0--------------------------------------|

Guitar 2
e|-----------------|--------------------------------------------------------|
B|-------2-2-------|--------------------------------------------------------|
G|-----------4--2--|----2--4-4-2--------------------------------------------|
D|----4------------|--0----------4----2-0-0---------------------------------|
A|--2--------------|----------------0--------4-0-2-4------------------------|2x
E|--------play 2x--|--------------------------------------------------------|


G 3x0200

G
Do you remember the JAMC?
And reading aloud from magazines
I don't know about you but I swear on my name they could smell it on me
I've never been too good with secrets.
No...

And together there
In a shroud of frost and mountain air
Began to pass through every pane of weathered glass
And I held you closer...


OUTRO:
Guitar 1
e|------0---------------------------------0---------------------------------|
B|--------------------------------------------------------------------------|
G|--------------------------------------------------------------------------|
D|----0--------2-4-2---0----------------0-----------------------------------|
A|---------0-4-------4---4--------------------------------------------------|3x
E|--3--------------------------end on-3-------------------------------------|

Guitar 2 plays G on andon


A LACK OF COLOR
_______________________________________________________________________________

Guitar 1: tuned down 1/2 step


INTRO/VERSE:

Guitar 1
eb|--------------------------------------------------------------------------|
Bb|--------------------------------------------------------------------------|
Gb|-------------------------------------------------------9------------------|
Db|--------------------------------------------------------------------------|
Ab|---11-11-11-11-11-11-11/7-7---7/11-11-11-11-11-11/9-9---------------------| 
Eb|--0--0--0--0--0--0--0----0-0-0-0--0--0--0--0--0----0-0--------------------|  

eb|--------------------------------------------------------------------------|
Bb|--------------------------------------------------------------------------|
Gb|----9---9---9---9---9---------------------------9---9---------------------|
Db|------------------------9---9---7---7---7---7-----------9---9-------------|
Ab|-----------------------------------------------------------------11-------|
Eb|--9---9---9---9---9---9---9---9---9---9---9---9---9---9---9---9-----------|


And when I see you
I really see you upside down
But my brain knows better
It picks you up and turns you around
Turns you around
Turns you around

If you feel discouraged
And there's a lack of color here
Please don't worry lover
It's really bursting at the seams
From absorbing everything
The spectrum's A to Z

Ohhh's

This is fact not fiction
For the first time in years
And all the girls in every girlie magazine
Can't make me feel any less alone
I'm reaching for the 


Guitar 1

B 79980x
C* 8-11-10-8xx
C#m x46650x
A 577655
Abm 46640x

 B
-phone
              C*
to call at 7:03
            C#m               B
and on your machine I slur a plea
                A
for you to come home
B                   C*
  but I know it's to late
                  C#m
and I should have given 
      Abm         A
you a reason to stay
C#m          Abm       A
given you a reason to stay
C#m          Abm       A
given you a reason to stay
C#m          Abm       A
given you a reason to stay


OUTRO:

Guitar 1
eb|--------------------------------------------------------------------------|
Bb|--------------------------------------------------------------------------|
Gb|-------------------------------------------------------9------------------|
Db|--------------------------------------------------------------------------|
Ab|---11-11-11-11-11-11-11/7-7---7/11-11-11-11-11-11/9-9---------------------| 
Eb|--0--0--0--0--0--0--0----0-0-0-0--0--0--0--0--0----0-0--------------------|  

eb|--------------------------------------------------------------------------|
Bb|--------------------------------------------------------------------------|
Gb|----9---9---9---9---9---------------------------9---9---------------------|
Db|------------------------9---9---7---7---7---7-----------9---9-------------|
Ab|-----------------------------------------------------------------11-------|
Eb|--9---9---9---9---9---9---9---9---9---9---9---9---9---9---9---9-----------|
comments
We did not receive enough feedback on this tab! Please rate:
print report bad tab
1 2 3 4 5
I want to post or [tab]
guest
You may want to rate the tab now too:
select rating
Please do not post tabs as comments. Select "correction" instead!