Oops, an error
Loading. Please wait.

Here I Dreamt I Was An Architect Tab

ver1
ver1

Whole song

More versions @911Tabs.com
27,097 views 9 this week
2 commentsread comments
1 2 3 4 5
accurate
x 7
Autoscroll
+/-
esc
set tempo
stop
Contributor
Difficulty
novice
Hey! There's an official Ultimate Guitar app which is ideal
for learning songs when you're away from computer. Get the app
WARNING: You are trying to view
                                    content from Ultimate-Guitar.com
                                    in an unauthorized application,
                                    which is prohibited.

                                    Please use an official Ultimate
                                    Guitar Tabs application for iPhone,
                                    iPad or Android to access legitimate
                                    chords, guitar, bass, and drum tabs
                                    from Ultimate-Guitar.com database.

                                    Type "ultimate guitar tabs" in Apple
                                    App Store's or Android Market's
                                    search to find the application.
tabbed by:Nate Turner
email me at:Lazinesslover@aol.com

Hi this is my First tab, so be nice.


The song has 2 guitar parts, one part has already been posted, the chords that Colin 
Ill be submitting what Chris Funk plays.Although when I saw them live he was playing a 
The Cd version sounds like a electric guitar.

The majority of the song has 2 phrases:

I
e|--------0-------0---0-------|
B|--0-----------3---3---------|
G|----------------------------|
D|----------------------------|
A|----------------------------|
E|----------------------------|

II
e|-------0--------------------|
B|--0---------3--1--0---------|
G|---------------------2--0---|
D|----------------------------|
A|----------------------------|
E|----------------------------|


When you see "I" play the first phrase when you see "II" play the second

inrto: play I four times

I                          I
  And here I dreamt I was a soldier
I                            I
  And I marched the streets of Birkenau
I
  And I recall in spring
I
  The perfume that the air would bring
I                      II
  To the indolent town
I                           I
  Where the barkers call the moon down
I                          I
  The carnival was ringing loudly now
I
  And just to lay with you
I
  There's nothing that I wouldn't do
I                        II
  Save lay my rifle down

(I cant hear  Chris Funks guitar in the chorus so I guess he doesnt play)

And try one, and try two
Guess it always comes down to,
Alright, its ok, guess its better to turn this way


Starting on "way" Play I four times

I                      I
  And I am nothing of a builder
I                          I
  But here I dreamt I was an architect
I
  And I built this balustrade
I
  To keep you home, to keep you safe
I                       II
  From the outside world
I                   I
  But the angles and the corners
I                     I
  Even though my work is unparalleled
I
  They never seemed to meet
I
  This structure fell about our feet
I                       II
  And we were free to go

And try one, and try two
Guess it always comes down to
Alright, okay, guess it's better to turn this way


Starting on way I x 8 and end with a open B

(In the Spaniard verse guitar 2 drops out but guitar 1 stops playing chords and plays 
very softly, so I thought I would add it)

III
e|--0-----------|
B|------1--0----|
G|--------------|
D|--------------|
A|--------------|
E| -------------|


   And here in Spain I am a Spaniard
III
   I will be buried with my marionettes
III                III
   Countess and courtesan
                    III
  Have fallen beneath my tender hand
                             III
  When their husbands were not around


(Guitar to comes back in)

I                           I
  But you, my soiled teenage girlfriend
I                          I
  Or are you furrowed like a lioness
I
  And we are vagabonds
I
  We travel without seatbelts on
I                             II
  We live this close to death

At this point I can make out  what sounds like a guitar 2 part for the chorus but I cant 
for sure. Here is what I think it is:

IV
e|-----------------|
B|----------0---3--|
G|--0---2----------|
D|-----------------|
A|-----------------|
E|-----------------|

(This might been playing through all of the chorus', but i just couldnt hear it)

             IV            IV
  And try one, and try two
           IV                 IV
Guess it always comes down to
       IV         IV          IV                   IV
Alright, it's okay, guess it's better to turn this
         IV           IV
But I won, so you lose
              IV              IV
Guess it always comes down to
        IV        IV          IV
Alright, it's okay, guess it's better to turn this way

On "way" play I seven times then II once

Thanks for checking out my tab, send me a email if there are any problems.
comments
print report bad tab
2 comments total.
+2 reply
New_York-Doll wrote on November 15 2007, 05:42 pm

i think it goes like
that:

I
e|------0-----0---0------------|
B|--0-----0-3---3--------------|
G|----0------------------------|
D|----
-------------------------|
A|-----------------------------|
E|-----------------------------|

II
e|------0---------
------------|
B|--0-----0-3-1-0-------------|
G|----0-----------2------------|
D|-----------------------------|
A|--
---------------------------|
E|-----------------------------|

+3 reply
New_York-Doll wrote on November 15 2007, 05:44 pm

well, you
know..
I
e|------0-----0---0----|
B|--0-----0-3---3------|
G|----0----------------|
D|---------------------|
A|---
------------------|
E|---------------------|

II
e|------0--------------|
B|--0-----0-3-1-0------|
G|----0--------
---2----|
D|---------------------|
A|---------------------|
E|---------------------|

I want to post or [tab]
guest
You may want to rate the tab now too:
select rating
Please do not post tabs as comments. Select "correction" instead!