Oops, an error
Loading. Please wait.

Rox In The Box Tab

ver1
ver1

Whole song

More versions @911Tabs.com
10,011 views 9 this week
no commentswrite comment
1 2 3 4 5
accurate
x 4
add to favorites launch autoscroll
font size
0
reset
Autoscroll
+/-
esc
set tempo
stop
Contributor
Difficulty
intermediate
WARNING: You are trying to view
                                    content from Ultimate-Guitar.com
                                    in an unauthorized application,
                                    which is prohibited.

                                    Please use an official Ultimate
                                    Guitar Tabs application for iPhone,
                                    iPad or Android to access legitimate
                                    chords, guitar, bass, and drum tabs
                                    from Ultimate-Guitar.com database.

                                    Type "ultimate guitar tabs" in Apple
                                    App Store's or Android Market's
                                    search to find the application.
Standard Tuning: [Capo II]

Thanks to Don Tago for the song, I just added the intro and solo.

Chords used:
   EADGBe
Am:002210
C: 032010
Em:022000
F: 133211
G: 320033


------------------------------------------------------------------------

Intro: 

Played over- 
[Am - C - Em - Am] x2

e -----------------------------------------|
B -----------------------------------------|
g -2-2--0h2p0------------------------------|
D -----------h2-2-----0h2---2--0h2h0-------|
A ----------------------------------h2-0---|
E -----------------------------------------|


Verse 1:
           Am                        C                        G
We get the rocks in the box, get the water right down to your socks
     Em                                 Am
This bulkheads built of fallen brethren bones
       Am                   C               G
We all do what we can, we endure our fellow man
       Em                                           Am
And we sing our songs to the headframes, creeps and bones


Chorus 1:
         F                       C
And it's one, two, three, of the wrong side of the lee
        G                  Am
What we meant for, what we meant for
        F                                C
And its seven, eight, nine, you get your shuffle back in line
    G                                            Am
And if you ever make it to ten you won't make it again
    G                                            Am
And if you ever make it to ten you won't make it again


Interlude: [Am - C - Em - Am] x2

e -5-5--3h5p3-----------------------------------------|
b ------------5--5-----3h5--5--3h5p3------------------|
g ------------------------------------4--2------------|
D ----------------------------------------------------|  x2
A ----------------------------------------------------|
E ----------------------------------------------------|


Verse 2: [use verse 1 chords]
And you won't make it time on this gray ground of mountain mine
Of dirt your made and of dirt you will return
So while were living here, let's get this other one thing clear
There's plenty of men to die, you don't jump your turn


Chorus 2: [use chorus 1 chords]
And it's one, two, three, of the wrong side of the lee
What we meant for, what we meant for
And its seven, eight, nine, you get your shuffle back in line
And if you ever make it to ten you won't make it again
And if you ever make it to ten you won't make it again


Interlude/Solo: 

Played over
[Am - C - Em - Am] x2
[Am - G - Em - C] x2

e -5-5--3h5p3-----------------------------------------|
b ------------5--5-----3h5--5--3h5p3------------------|
g ------------------------------------4--2------------|
D ----------------------------------------------------|  x2
A ----------------------------------------------------|
E ----------------------------------------------------|


e -----------------------5--5s7--5p3------------------|
b -5p3------5p3-------5p3------------5-5--------------|
g ----5-4-2----5-4-2----------------------------------|
D ----------------------------------------------------|
A ----------------------------------------------------|
E ----------------------------------------------------|

e ----3-3h5--353--------------------------------------|
b -3h5----------535------------3-5-3------------------|
g --------------------2-4-5-4-5-----5-4-5-4-2-0-2-----|
D ----------------------------------------------------|
A ----------------------------------------------------|
E ----------------------------------------------------|

Chorus 3: [use chorus 1 chords]
And it's one, two, three, of the wrong side of the lee
What we meant for, whatever your meant for
And its seven, eight, nine, you get your shuffle back in line
And if you ever make it to ten you won't make it again
And if you ever make it to ten you won't make it again
And if you ever make it to ten you won't make it again
comments
print report bad tab
I want to post or [tab]
guest
You may want to rate the tab now too:
select rating
Please do not post tabs as comments. Select "correction" instead!