Oops, an error
Loading. Please wait.

The Hazards Of Love Chords

5,040 views 79 this week
1 commentread comment
1 2 3 4 5
accurate
x 5
Autoscroll
+/-
esc
set tempo
stop
Contributor
Tuning
D A D G B E
Hey! There's an official Ultimate Guitar app which is ideal
for learning songs when you're away from computer. Get the app
WARNING: You are trying to view
                                    content from Ultimate-Guitar.com
                                    in an unauthorized application,
                                    which is prohibited.

                                    Please use an official Ultimate
                                    Guitar Tabs application for iPhone,
                                    iPad or Android to access legitimate
                                    chords, guitar, bass, and drum tabs
                                    from Ultimate-Guitar.com database.

                                    Type "ultimate guitar tabs" in Apple
                                    App Store's or Android Market's
                                    search to find the application.
This tab has the chords to all of the songs possible, and for the rest it has tabs.

1. Prelude
2. The Hazards of Love 1(The Prettiest Whistles Won't Wrestle the Thistles Undone)
3. A Bower Scene
4. Won't Want For Love(Margaret in the Taiga)
5. The Hazards of Love 2(Wager All)
6. The Queen's Approach
7. Isn't it a Lovely Night
8. The Wanting Comes in Waves/Repaid
9. An Interlude
10. The Rake's Song
11. The Abduction of Margaret
12. The Queen's Rebuke/The Crossing
13. Annan Water
14. Margaret in Captivity
15. The Hazards of Love 3(Revenge!)
16. The Wanting Comes in Waves(Reprise)
17. The Hazards of Love 4 (The Drowned)

1. Prelude
I am tabbing this song from 1:37 onward because before that it is just one or two 
notes. The note before that is D played in different octaves.

Synthesizer (1:34-2:28)                    Viola(2:29-End)
e|--0-1-6-5-4-0---1-6-7-5-0---0--|   e|17-16-12-13-10-12-13-10-12-9-10--|
B|3-------------3-----------3---2|   B|---------------------------------|
G|-------------------------------|   G|---------------------------------|
D|-------------------------------|   D|---------------------------------|
A|-------------------------------|   A|--------------------------------4|
D|-------------------------------|   D|---------------------------------|



2. The Hazards of Love 1(The Prettiest Whistles Won't Wrestle the Thistles Undone)

Originally Tabbed by: Cassaroll168

DROP D

VERSE 1

D                                    G      F      D
My true love went riding out in white and green grey
                                         G      F          D
Past the pale of Arthur's wall, where she was wont to stray
    G         F      D         G        F       D  
And there she came upon a white and wounded fawn

CHORUS
 
       F  Em   F     D          G
Singing Oh oh, the hazards of love

VERSE 2

D                            G      F         D
She being full of charity, a credit to her sex
                                          G         F           D
Sought to right the fawn's hind leg, when here her plans were vexed
   G          F         D         G F         D
The Taiga shifted strange, the beast began to change

CHORUS

       F  Em   F     D          G
Singing Oh oh, the hazards of love
       F  Em   F     D          G
Singing Oh oh, the hazards of love
F                    D
You'll learn soon enough
    F         D              F           D         G     D
The prettiest whistles won't wrestle the thistles undone, undone

VERSE 3
                                  G  F       D
Fifteen lissome maidens lay, along in their bower
                                 G     F     D
Fourteen occupations paid, to pass the idle hour
G          F       D     G              F           D
Margaret heaves a sigh, her hands clasped to her thighs

CHORUS

       F  Em   F     D          G
Singing Oh oh, the hazards of love
       F  Em   F     D          G
Singing Oh oh, the hazards of love
F                    D
You'll learn soon enough
    F         D              F           D         G     D
The prettiest whistles won't wrestle the thistles undone, undone

Undone, undone, undone



3. A Bower Scene

Originally tabbed by: DonTago

In all of the places I have the riff, you can just play the D chord. Played in 
drop D with the chord formations like this:

The D* is where you cannot play the riff. 

INTRO

D   e|--5---3---0-------5---7---8---7|
    B|--------------3----------------|
    G|5---5---5---5---5---7---7---7--|
                                                
VERSE 1                                         

F                           G             D OR e|--5---3---0----|
Thou inconsolable daughter said the sister     B|--------------3|
                                               G|5---5---5---5--|
                                                  
F                           G               D OR e|--5---3---0----|
When wilt thou trouble the water in the cistern  B|--------------3|
                                                 G|5---5---5---5--|

Bb                           C             D* F D* G D* F D* G
And what irascible black Bart is the father
e|--5---3---0----|
B|--------------3|
G|5---5---5---5--|
                                             
VERSE 2                                           

F                           G               D OR  e|--5---3---0----|
And when young Margret's waistline grew wider     B|--------------3|
                                                  G|5---5---5---5--|

F                           G               D OR  e|--5---3---0----|
The fruit of her amorous entwine inside her       B|--------------3|
                                                  G|5---5---5---5--|
Bb                          C            
And so our heroine withdraws to the Taiga
D* F D* G D* F D* G D* F D* G D* F D* G



4. Won't Want for Love (Margaret in the Taiga)

Originally tabbed by: DonTago

DROP D

INTRO

D|--------------------0-3-0-----------------------0-3-0----|
A|------0-3-0--------------h3p------0-3-0--------------h3p-|
D|0-0-0------h3p0-0-0---------0-0-0------h3p0-0-0---------0|

e|--------------0-------------------0----|
B|------1-1-3-3---3-1-------1-1-3-3---3-1|
G|2-4-4---------------2-4-4--------------|

VERSE 1

D                              F             G
Gentle leaves, gentle leaves, please array a path for me
F               G                           D
The wood's all growing thick and fast around  G|2-4-4-5|
D                     F                 G
Columbine, columbine, please alert this love of mine

F                G                   D 
Let him know his Margret comes along    e|--------------0---|
                                        B|------1-1-3-3--3-1|
                                        G|2-4-4-------------|

CHORUS

F            G          F       G            F        G       D
And all this stirring inside my belly won't quell my want for love G|2-4-4-5|
    F       G        F         G           F       G          D 
And I may swoon from all this swelling but I won't want for love

e|--------------0-------------------0----|
B|------1-1-3-3---3-1-------1-1-3-3---3-1|
G|2-4-4---------------2-4-4--------------|

VERSE 2

D                             F                     G 
Mistle Thrush, Mistle Thrush, lay me down in the underbrush
F                  G                D 
My naked feet grow weary with the dusk G|2-4-4-5|
D                             F             G
Willow boughs, willow boughs, make a bed to lay me down 
F                 G               D
Let your branches bow to cradle us      e|--------------0---|
                                        B|------1-1-3-3--3-1|
                                        G|2-4-4-------------|

CHORUS

F            G          F       G            F        G       D 
And all this stirring inside my belly won't quell my want for love G|2-4-4-5|
    F       G        F         G           F       G          D 
And I may swoon from all this swelling but I won't want for love
e|--------------0-------------------0----|
B|------1-1-3-3---3-1-------1-1-3-3---3-1|
G|2-4-4---------------2-4-4--------------|

F               F                   F     
Oh my own true love, oh my own true love   B|5-5-5-3-3-3-1-1-1|
F                F                     F  
Can you hear me love? Can you hear me love B|5-5-5-3-3-3-1-1-1----------|
                                           G|------------------4-4-4-4\2|

BRIDGE                                          

D|--------------------0-3-0-----------------------0-3-0----|
A|------0-3-0--------------h3p------0-3-0--------------h3p-|
D|0-0-0------h3p0-0-0---------0-0-0------h3p0-0-0---------0|

e|--------------0----|
B|------1-1-3-3---3-1|
G|2-4-4--------------|

CHORUS

F            G          F       G            F        G       D 
And all this stirring inside my belly won't quell my want for love G|2-4-4-5|
    F       G        F         G           F       G          D 
And I may swoon from all this swelling but I won't want for love

OUTRO
               
      Won't   want for love Won't 
e|--------------0-------------------0----|
B|------1-1-3-3---3-1-------1-1-3-3---3-1|
G|2-4-4---------------2-4-4--------------|
 want for love Won't  want for love
e|--------------0-------------------0----|
B|------1-1-3-3---3-1-------1-1-3-3---3-1|
G|2-4-4---------------2-4-4--------------|



5. The Hazards of Love 2 (Wager All)

Drop D

VERSE 1

           D  D/C#  D
And here I am,     softer than a shower
             D/C# D
And here I am,    to garland you with flowers

PRE-CHORUS

   C          G                D
To lay you down, in clover bed
     C         G                D
The stars a roof above our heads

VERSE 2

              D/C# D
And all my life,   I never felt a tremor
               D/C# D
And all my life,    that now disturbs my fingers

PRE-CHORUS

    C          G             D
To lay you down, in clover bed
     C          G               D
The stars a roof above our heads

CHORUS

     C     G                            D
And we'll lie 'till the Corn Crake crows 
   C          G                           D D/C#
Bereft of the weight of our summer clothes
     Bm  A    G  Em                   D G                  D
And I'd wager all, the hazards of love,  the hazards of love 

C G D C G D D/C#

VERSE 3

                D/C#  D 
And take my hand     and cradle it in your hand
                D/C#  D
And take my hand     to feel the pull of quicksand

PRE-CHORUS

   C          G                D
To lay you down, in clover bed
     C         G                D
The stars a roof above our heads

CHORUS

     C     G                            D
And we'll lie 'till the Corn Crake crows 
   C          G                           D D/C#
Bereft of the weight of our summer clothes
     Bm  A    G  Em                   D G                  D
And I'd wager all, the hazards of love,  the hazards of love
G                  D G                 D 
The hazards of love, the hazards of love, oh



6. The Queen's Approach

Originally tabbed by: monoxianx

DROP D

e|---------1-----------5-1-----------1--------------------|
B|----3------3-----3-------3-----3-----3-------1---------3|
G|------2------------2-------------2-----2---2---2-----4--|
D|--0------------0-------------0-----------3-------3/5----|
A|--------------------------------------------------------|
D|0------------0-------------0----------------------------|

e|---------1-----------5-1-----------1--------------------|
B|----3------3-----3-------3-----3-----3-------1---------3|
G|------2------------2-------------2-----2---2---2-----4--|
D|--0------------0-------------0-----------3-------3/5----|
A|--------------------------------------------------------|
D|0------------0-------------0----------------------------|



7. Isn't it a Lovely Night?

DROP D

INTRO

A|2-4-4-4-4-5-2-2-4-4-4-4-5-2-2-4-4-4-4-5-2-2-4|


G|----------0-4-0-4-2-0---2-0-----0--------------------------|
D|----0-2-4-------------4-----4-2---4-2-0---0----------------|
A|2-4-------------------------------------4---2-2-4-4-4-4-5-2|

G|----------0-4-0-4-2-0---2-0-----0--------------------------|
D|----0-2-4-------------4-----4-2---4-2-0---0----------------|
A|2-4-------------------------------------4---2-2-4-4-4-4-5-2|

VERSE 1

  Is-n't it a lov-ely night?
G|-----------------0----4|
D|-------0--2--4---------|
A|2-4--------------------|

  And so a-live with fi-re-flies pro-vi-ding us their ho-ly light
G|0---4--2---0-------2---0------------0-------------------------------------|
D|---------------4-----------4----2-------4---2--0--------0-----------------|
A|-----------------------------------------------------4-----2-2-4-4-4-4-5-2|

  And here we made our bed of boughs
G|--------------------------0----4|
D|-------------0----2---4---------|
A|2--------4----------------------|

And this-tle down that we had found to lay up-on the de-wy ground.
G|0---4--2----0--------2---0------------0-----------------------------------|
D|-----------------4-----------4----2-------4--2--0--------0----------------|
A|-----------------------------------------------------4-----2-2-4-4-4-4-5-2|

CHORUS

                             D  D7                        Em  
And is-n't it a love-ly way        We got in from our play
G|-------------------0----2|
D|---------0--2--4---------|
A|---2--4------------------|
A           G  A                 G
Isn't it babe? A sweet little baby  
A|2-4-4-4-4-5-2|

VERSE 2

And was-n't it a love-ly breeze
G|---------------------0----4|
D|----------0--2---4---------|
A|---2--4--------------------|

That swept the leaves of ar-bor eaves and bent to brush our blush-ing knees
G|0---4------2----0------2---0--------------0----------------------------|
D|---------------------4-----------4----2-------4---2----0--------0------|
A|------------------------------------------------------------4---------2|

A|2-4-4-4-4-5-2|

And here we died our lit-tle deaths
G|------------------------0----4|
D|------------0---2---4---------|
A|---2---4----------------------|

 And we were left to catch our breath so swift-ly lift-ing from our chests
G|0---4--2----0--------2----0--------------0----------------------------|
D|-----------------4--------------4----2-------4---2----0--------0------|
A|-----------------------------------------------------------4---------2|

A|2-4-4-4-4-5-2|

CHORUS

                             D  D7                        Em  
And is-n't it a love-ly way        We got in from our play
G|-------------------0----2|
D|---------0--2--4---------|
A|---2--4------------------|
A           G  A                 G
Isn't it babe? A sweet little baby  A|2-4-4-4-4-5-2|

G|----------0-4-0-4-2-0---2-0-----0--------------------------|
D|----0-2-4-------------4-----4-2---4-2-0---0----------------|
A|2-4-------------------------------------4---2-2-4-4-4-4-5-2|

G|----------0-4-0-4-2-0---2-0-----0--------------------------|
D|----0-2-4-------------4-----4-2---4-2-0---0----------------|
A|2-4-------------------------------------4---2-2-4-4-4-4-5-2|
D|-----------------------------------------------------------|

G|----------0-1|  D  D7 Em A G A G
D|----0-2-4----|                   
A|2-4----------|

G|----------0-4|
D|----0-2-4----|
A|2-4----------|



7. The Wanting Comes in Waves
NORMAL TUNING

INTRO

e|--0-1-3-5-6-5-------0-1-3-5-6-5------0-1-3-5-6-5---0-0-0-1-0---0|
B|3-------------3-5-3------------3-5-3-------------3-----------3--|

Bb

VERSE 1

  Mo-ther I can hear your foot-fall, now
e|----0---1--3---5----6----5-----------|
B|3-----------------------------3-----5|

  Soft dis-tur-bance in the dead fall
e|------0---1---3-----5--6---5------|
B|3--------------------------------3|
 
  How it pro-ceeds you like a black smoke pall
e|--------0----1----3----5--6---5------------|
B|5---3-------------------------------3-----5|

                               Bb
  Still the wan-ting comes in waves
e|--0----0---1----0---------0|
B|---------------------3-----|

  And you de-liv-ered me from dan-ger
e|--------0---1----3--5----6----5---|
B|-----3---------------------------3|

  Then pulled my cra-dle from the ree-dy glen,
e|------------0---1---3---5----6----5-------|
B|5-------3----------------------------3---5|

  Swore to save me from the world of men,
e|------0---1---3---5----6---5---------|
B|--3-----------------------------3---5|

                                Bb
  Still the wan-ting comes in waves,
e|--0----0---1---0----------0|
B|--------------------3------|

CHORUS
 
In waves
F        Am  Bb
And waves Oooooh
F                           Bb  Am Bb
And the wanting comes in waves Oooooh
F                           Bb Am Bb
And the wanting comes in waves Oooooh
Gm
And I want this night
Bbm
And I want this night
N.C.
Oh

VERSE 2

G                 D               C 
Ohh I made you, I wrought you, I pulled you
G                            D         C
From war I labored you, from cancer I harbored you
      G
And now 
Bb                C
This is how I am repaid
Bb                C
This is how I am repaid
G        
Remember, when I found you
      D            C
The miseries that hounded you
    G
And I gave you motion
  D                C
Anointed you with lotion

CHORUS

      G
And now 
Bb                C
This is how I am repaid
Bb                C
This is how I am repaid

VERSE 3

  Mo-ther, hear this pro-pos-it-ion, right
e|----0-----1----3---5----6---5-----------|
B|3------------------------------3-------5|

  Grant me free-dom to en-joy this night
e|-------0---1---3---5-6---5-----------|
B|3-----------------------------3-----5|
 And I'll re-turn to you at break of light
e|---------0---1---3--5--6----5-----------|
B|----3----------------------------3-----5|
                                Bb
  Still the wan-ting comes in waves,
e|--0----0---1---0----------0|
B|--------------------3------|

CHORUS

In waves
F        Am  Bb
And waves Oooooh
F                           Bb  Am Bb
And the wanting comes in waves Oooooh
F                           Bb Am Bb
And the wanting comes in waves Oooooh
Gm
And you owe me life
Bbm
And you owe me life
N.C.
Oh

VERSE 4

    G                   D         C
And if I grant you this favor, to hand you
     G                           D         C
Your life for the evening I will retake by morning

CHORUS
    G 
And so
D                C      G 
Consider it your debt repaid
D                C      G 
Consider it your debt repaid
D  C G 
Repaid
D  C G
Repaid



9. An Interlude

DROP D

Originally tabbed by: Stormx

D:|----4-2-----5-4-----2h4-----4-2-----5-4-----2h4|
A:|--0-------0-------0-------0-------0-------0----|
D:|0-------0-------0-------0-------0-------0------|

D:|----4-2-----5-4-----2h4-----4-2-----5-4-----2h4|
A:|--0-------0-------0-------0-------0-------0----|
D:|0-------0-------0-------0-------0-------0------|

G:|----4-----4-------------------------------------------|
D:|--4-----4-----0-----0-----0-5-0-------0-----0-4h5-----|
A:|2-----2-----0-----5---4h5-------5---5---4h5-------5-0-|
D:|----------------5-----------------5-------------------|

D:|----4-2-----5-4-----2h4-----4-2-----5-4-----2h4|
A:|--0-------0-------0-------0-------0-------0----|
D:|0-------0-------0-------0-------0-------0------|

D:|----4-2-----5-4-----2h4-----4-2-----5-4-----2h4|
A:|--0-------0-------0-------0-------0-------0----|
D:|0-------0-------0-------0-------0-------0------|

G:|----4-----4-------------------------------------------|
D:|--4-----4-----0-----0-----0-5-0-------0-----0-4h5-----|
A:|2-----2-----0-----5---4h5-------5---5---4h5-------5-0-|
D:|----------------5-----------------5-------------------|

D:|----4-2-----5-4-----2h4-----4-2-----5-4-----2h4|
A:|--0-------0-------0-------0-------0-------0----|
D:|0-------0-------0-------0-------0-------0------|

D:|----4-2-----5-4-----2h4-----4-2-----5-4-----2h4|
A:|--0-------0-------0-------0-------0-------0----|
D:|0-------0-------0-------0-------0-------0------|

G:|----4-----4---|-------------2-----------------------|
D:|--4-----4-----0-----0-----0---0-------0-----0-4h5-0-|
A:|2-----2-----0-|---5---4h5-------5---5---4h5---------|
D:|--------------|-5-----------------5-----------------|

G:|---------------2-------------------------0-|
D:|-------0-----0---0-------0-----0-4h5-0---0-|
A:|-5---5---4h5-------5---5---4h5---------5-5-|
D:|---5-----------------5-------------------5-|



10: The Rake's Song

Adapted from the tab by: Sandlas Juagas

NORMAL TUNING

INTRO

 (G  Em) x4

VERSE 1

G     Em      G      Em
I had entered into a marriage
G      Em           G            Em
In the summer of my twenty-first year
G       Em         G       Em
And the bells rang for our wedding
G    Em       G           Em
Only now do I remember it clear

CHORUS

  Am       C
Alright, alright, alright

(G  Em) x2

VERSE 2

G         Em       G         Em
No more a rake and no more a bachelor
G     Em            G          Em
I was wedded and it whetted my thirst
G         Em         G            Em
Until her womb start spilling out babies
G         Em    G         Em
Only then did I reckon my curse

CHORUS

  Am       C             G  Em  G  Em
Alright, alright, alright
  Am       C
Alright, alright, alright

(G  Em) x4

VERSE 3

G          Em              G               Em
First came Isaiah with his crinkled little fingers
G         Em                 G             Em
Then came Charlotte and that wretched girl Dawn
G       Em   G          Em
Ugly Myfanwy died on delivery
G          Em         G      Em
Mercifully taking her mother along

CHORUS

  Am        C
Alright, alright, alright

(G  Em) x2

VERSE 4

G            Em      G       Em
What can one do when one is widower
G           Em           G           Em
Shamefully saddled with three little pests
G          Em              G          Em
All that I wanted was the freedom of a new life
So my burden I began to divest

CHORUS

  Am       C             G  Em  G  Em
Alright, alright, alright
  Am       C
Alright, alright, alright

VERSE 5

G           Em           G           Em
Charlotte I buried after feeding her foxglove
G        Em             G             Em
Dawn was easy, she was drowned in the bath
G      Em             G      Em
Isaiah fought but was easily bested
G          Em       G            Em
Burned his body for incurring my wrath

CHORUS

  Am       C
Alright, alright, alright

(G E)x2 

VERSE 6

G                Em           G      Em
And that's how I became your humble narrator
G     Em         G       Em
To be living so easy and free
G                Em        G          Em
Expect that you think that I should be haunted
G      Em           G       Em
But it never really bothers me  

CHORUS

   Am       C             G  Em  G  Em
Alright, alright, alright
  Am       C
Alright, alright, alright

G Em G Em Em Em



The Abduction of Margaret

DROP D 

In all of the places I have the riff, you can just play the D chord. Played in 
drop D with the chord formations like this:


The D* is where you cannot play the riff.

INTRO

    e|--5---3---0-------5---7---8---7|
    B|--------------3----------------|
    G|5---5---5---5---5---7---7---7--|

VERSE 1

 F                                  G            D OR e|--5---3---0----| 
And all the while whispering arbors provide cover    B|--------------3|
                                                     G|5---5---5---5--|
                                                
F                           G             D OR  e|--5---3---0----|
What previous witness ardors of our lovers      B|--------------3|
                                                G|5---5---5---5--|

Bb                            C             D* F D* G D* F D* G
Our heroine here falls prey to her abductor
    e|--5---3---0-------5---7---8---7|
    B|--------------3----------------|
    G|5---5---5---5---5---7---7---7--|

VERSE 2

F                           G                      D OR  e|--5---3---0----|
All a'gallop with Margaret slung rude cross withers      B|--------------3|
                                                         G|5---5---5---5--|

F                           G                D OR  e|--5---3---0----|
Having clamped her innocent fingers in fetters     B|--------------3|
                                                   G|5---5---5---5--|
Bb                                 C              
Our villain must calculate crossing the wild river



12.The Queen's Rebuke/The Crossing

Adapted from tab by: Stormx

INTRO

(D F D G)x4

VERSE 1

D  F  D     G        D                 F
Iiiii'mmmmmm made of bones of the branches, 
D                    G                D F D G
The boughs, and the brow-beating light
        D            F             D               G      D F D G
Oh, my feet are the trunks and my head is the canopy high
        D          F          D              G                F
And my fingers extend to the leaves and the eaves and the bright
          G           F
Brightest shine, it's my shine

(D F D G)x2

VERSE 2

    D F D G        D      F       D            G              D F D G    
And heeeeee was a baby, abandoned entombed in a cradle of clay
     D          F             D         G           D F D G
And I was the soul that took pity and stole him away
     D            F         D         G          F
And gave him the form of a fawn to inhabit by day
          G         F
Brightest day, it's my day

(D F D G)x6

VERSE 3

     D F D G        D            F                  D          G           
And yoooouuuu have removed this temptation that's troubled my innocent child

D G D F

      D         F            D          G        D     F D G
To abduct and abuse and to render her rift and defiled
         D         F            D           G            F
But the river is deep to the banks and the water is wild
           G       F
But I will fly you to the far side

(D F D G) x4


B:|---------6--------------------6--------------------6-----------|
G:|---7p5-----7------------7p5-----7------------7p5-----7---------|
D:|-0-----7------3-5-3-5-0-----7------3-5-3-5-0-----7------3-5-3-5|
A:|-0------------3-5-3-5-0------------3-5-3-5-0------------3-5-3-5|
D:|-0------------3-5-3-5-0------------3-5-3-5-0------------3-5-3-5|

E:|------------------------------------8-|
B:|----------------------------------5---|
G:|------------5-------------5h7-5h7-----|
D:|-7----7p5-----7~--7-7p5---------------|
A:|-7--------7-------------7-------------|
D:|-7------------------------------------|

E:|------------------------------------8-|
B:|----------------------------------5---|
G:|------------5-------------5h7-5h7-----|
D:|-7----7p5-----7~--7-7p5---------------|
A:|-7--------7-------------7-------------|
D:|-7------------------------------------|

B:|---------6--------------------6--------------------6-----------|
G:|---7p5-----7------------7p5-----7------------7p5-----7---------|
D:|-0-----7------3-5-3-5-0-----7------3-5-3-5-0-----7------3-5-3-5|
A:|-0------------3-5-3-5-0------------3-5-3-5-0------------3-5-3-5|
D:|-0------------3-5-3-5-0------------3-5-3-5-0------------3-5-3-5|

E:|------------------------------------8-|
B:|----------------------------------5---|
G:|------------5-------------5h7-5h7-----|
D:|-7----7p5-----7~--7-7p5---------------|
A:|-7--------7-------------7-------------|
D:|-7------------------------------------|

E:|------------------------------------8-|
B:|----------------------------------5---|
G:|------------5-------------5h7-5h7-----|
D:|-7----7p5-----7~--7-7p5---------------|
A:|-7--------7-------------7-------------|
D:|-7------------------------------------|

(D F D G) x3

E:|------------------------------------8-|
B:|----------------------------------5---|
G:|------------5-------------5h7-5h7-----|
D:|-7----7p5-----7~--7-7p5---------------|
A:|-7--------7-------------7-------------|
D:|-7------------------------------------|

E:|------------------------------------8-|
B:|----------------------------------5---|
G:|------------5-------------5h7-5h7-----|
D:|-7----7p5-----7~--7-7p5---------------|
A:|-7--------7-------------7-------------|
D:|-7------------------------------------|

B:|---------6--------------------6--------------------6-----------|
G:|---7p5-----7------------7p5-----7------------7p5-----7---------|
D:|-0-----7------3-5-3-5-0-----7------3-5-3-5-0-----7------3-5-3-5|
A:|-0------------3-5-3-5-0------------3-5-3-5-0------------3-5-3-5|
D:|-0------------3-5-3-5-0------------3-5-3-5-0------------3-5-3-5|

A



13. Annan Water 

VERSE 1

Am
Annan water, you loom so deep and wide 
I would cross over if you would stem the tide 
Or build a boat that I might ford the other side                    
                                                                  F
To reach the farther shore where my true love lies in wait for me 
G           Am   F           Em  G           Am              
In wait for me,  in wait for me, in wait for me 

VERSE 2

Oh, great river, your waters ramble wild
The horses shiver and bite against the bridle
But I will cross if mine own horse is pulled from me 
                                                            F
Though my mother cries that if I try I sure will drowned be
G             Am  F            Em G             Am
Will drowned be, will drowned be, will drowned be 

CHORUS

            D   Dm              A   F#m
But if you calm     and let me pass 
         D           E                 A   A7
You may render me a wreck when I come back 
               D   Dm                A     A7
So calm your waves     and slow the churn 
             D               E                Am
And you may have my precious bones on my return 

VERSE 3

Annan water, oh hear my true love's call 
Hear her holler above your water's pall 
God, that I could that my two arms could give me wings
                                                                      F
And I would cross your breadth and rest my breast about her amber ring 
G            Am F            Em G             Am
Her amber ring, her amber ring, her amber ring

CHORUS

            D   Dm              A   F#m
But if you calm     and let me pass 
         D           E                 A   A7
You may render me a wreck when I come back 
               D   Dm                A     A7
So calm your waves     and slow the churn 
             D               E            [start verse tabs here]
And you may have my precious bones on my return 
              Dm 
On my, on my return

Am


14. Margaret In Captivity

Originally tabbed by: DonTago

e|---------------------------------------------------------------|
B|----5-------3-------1-------0-------5-------3-------1-------0--|
G|--5---5---4---4---2---1---0---0---5---5---4---4---2---1---0---0|
D|---------------------------------------------------------------|
A|---------------------------------------------------------------|
D|0-------0-------0-------0-------0-------0-------0-------0------|

e|------------------------------------------------------------|
B|-----5-------3-------1-------0---------------0-----------3--|
G|---5---5---4---4---2---1---0---0-----2-----0---0---2/4------| 
D|-----------------------------------3---3-----------3/5-0----|
A|------------------------------------------------------------|
D|-0-------0-------0-------0-------0-------0-------0----------|

VERSE 1: 

Play 5x (until "kickstand")
e|----------------------------------|
B|-----5-------3-------1-------0----|
G|---5---5---4---4---2---1---0---0--|
D|----------------------------------|
A|----------------------------------|
D|-0-------0-------0-------0--------|

Then play:
e|------------------------------------------------------------|
B|-----5-------3-------1-------0---------------0-----------3--|
G|---5---5---4---4---2---1---0---0-----2-----0---0---2/4------| 
D|-----------------------------------3---3-----------3/5-0----|
A|------------------------------------------------------------|
D|-0-------0-------0-------0-------0-------0-------0----------|
 
I have snipped your wingspan, my precious captive swan 
Here all clipped of kickstand, your spirit won't last long 

Play 5x (until "akimbo")
e|----------------------------------|
B|-----5-------3-------1-------0----|
G|---5---5---4---4---2---1---0---0--|
D|----------------------------------|
A|----------------------------------|
D|-0-------0-------0-------0--------|

Then play:
e|------------------------------------------------------------|
B|-----5-------3-------1-------0---------------0-----------3--|
G|---5---5---4---4---2---1---0---0-----2-----0---0---2/4------| 
D|-----------------------------------3---3-----------3/5-0----|
A|------------------------------------------------------------|
D|-0-------0-------0-------0-------0-------0-------0----------|

Don't you lift a finger, don't you snap and jaw 
Limber limbs akimbo, rest till rubbing raw 

CHORUS
 
F                                   G
Oh my own true love! Oh my own true love! e|----------------------|
                                          B|---5-5-5-3-3-3-1-1-1--|
                                          G|---5-5-5-4-4-4-2-2-2--|
F                                    G   
Can you hear me, love? Can you hear me, love? 
e|------------------------------------------------------------|
B|-----5-------3-------1-------0---------------0-----------3--|
G|---5---5---4---4---2---1---0---0-----2-----0---0---2/4------| 
D|-----------------------------------3---3-----------3/5-0----|
A|------------------------------------------------------------|
D|-0-------0-------0-------0-------0-------0-------0----------|

VERSE 2

Play 5x (until "wrecked you")
e|----------------------------------|
B|-----5-------3-------1-------0----|
G|---5---5---4---4---2---1---0---0--|
D|----------------------------------|
A|----------------------------------|
D|-0-------0-------0-------0--------|

Then play: 
e|------------------------------------------------------------|
B|-----5-------3-------1-------0---------------0-----------3--|
G|---5---5---4---4---2---1---0---0-----2-----0---0---2/4------| 
D|-----------------------------------3---3-----------3/5-0----|
A|------------------------------------------------------------|
D|-0-------0-------0-------0-------0-------0-------0----------|

Don't hold out for rescue, none can hear your call 
Till I have wrest and wrecked you, behind these fortress walls 

CHORUS
 
F                                   G
Oh my own true love! Oh my own true love!     e|----------------------|
                                              B|---5-5-5-3-3-3-1-1-1--|
                                              G|---5-5-5-4-4-4-2-2-2--|

F                                       G
Can you hear me, love? Can you hear me, love? e|----------------------|
                                              B|---5-5-5-3-3-3-1-1-1--|
                                              G|---5-5-5-4-4-4-2-2-2--|

OUTRO

F G
 
e|----------------------|
B|---5-5-5-3-3-3-1-1-1--|
G|---5-5-5-4-4-4-2-2-2--|

F G

e|----------------------|
B|---5-5-5-3-3-3-1-1-1--|
G|---5-5-5-4-4-4-2-2-2--|



15. The Hazards of Love 3 (Revenge!)

NORMAL TUNING

INTRO

e|--0-1-3-5-6-5-------0-1-3-5-6-5------0-1-3-5-6-5---0-0-1-0---0|
B|3-------------3-5-3------------3-5-3-------------3---------3--|

Bb

e|--0-1-3-5-6-5-------0-1-3-5-6-5------0-1-3-5-6-5---0-0-1-0---0|
B|3-------------3-5-3------------3-5-3-------------3---------3--|

Bb


Badd9 Eb7 Bbadd9 Badd9 Eadd9 Dmaj7 Eadd9 Cadd9  

VERSE 1

Badd9     Eb7       Bbadd9 Badd9
Father I'm not feeling well, 
          Eadd9  Dmaj7    Eadd9 Cadd9
The flowers     me you fed
Badd9        Eb7    Bbadd9 Badd9
Tasted spoiled for sudden-ly
Eadd9        Dmaj7   Eadd9 Cadd9
I find that I am dead
         Badd9 Eb7    Bbadd9 Badd9  
But father don't you fear, 
        Eadd9  Dmaj7   Eadd9 Cadd9
Your children all are here 

CHORUS

N.C.              
Singin ohhhh ohhh the hazards of love

Badd9 Eb7 Bbadd9 Badd9 Eadd9 Dmaj7 Eadd9 Cadd9  

VERSE 2

N.C.                                            Eadd9 Cadd9
Father turn the water down the basin's overflowed
      Badd9    Eb7         Bbadd9 Badd9
The water covers everything 
     Eadd9  Dmaj7   Eadd9 Cadd9
And me left all alone
        Badd9 Eb7    Bbadd9 Badd9
But father, here in death, 
    Eadd9     Dmaj7   Eadd9 Cadd9
I have regained my breath

CHORUS

                                      Badd9 Eb7 Bbadd9 Badd9
To sing ohhhh ohhh the hazards of love
                                      
To sing ohhhh ohhh the hazards of love

Badd9 Eb7 Bbadd9 Badd9 Eadd9 Dmaj7 Eadd9 Cadd9

VERSE 3

   Badd9   Eb7    Bbadd9   Badd9
Spare the rod, you spoil the child 
    Eadd9   Dmaj7   Eadd9 Cadd9
But I prefer the lash
      Badd9      Eb7    Bbadd9   Badd9
My sisters, drowned and poisoned all 
    Eadd9     Dmaj7   Eadd9 Cadd9
And me reduced to ash
       Badd9 Eb7    Bbadd9 Badd9
And buried in an urn, 
        Eadd9 Dmaj7   Eadd9 Cadd9
But father I've returned

CHORUS

N.C.                                  Badd9 Eb7 Bbadd9 Badd9 
Singin ohhhh ohhh the hazards of love
N.C.                                 Badd9 Eb7 Bbadd9 Badd9
Singin ohhhh ohhh the hazards of love

OUTRO
                   Badd9 Eb7 Bbadd9 Badd9
The hazards of love
                   
The hazards of love

Badd9 Eb7 Bbadd9 Badd9 Eadd9 Dmaj7 Eadd9 Cadd9



16. The Wanting Comes In Waves Reprise

NORMAL TUNING

e|--0-1-3-5-6-5-------0-1-3-5-6-5------0-1-3-5-6-5---0-0-1-0---0|
B|3-------------3-5-3------------3-5-3-------------3---------3--|

Bb B

F                    Bb      Am        Bb
And here come the waves ooh ooh ooh ooh ooh ooh
F                          Bb      Am        Bb
And the wanting comes in waves ooh ooh ooh ooh ooh ooh
F                          Bb      Am        Bb
And the wanting comes in waves ooh ooh ooh ooh ooh ooh
F                          Bb      Am        Bb
And the wanting comes in waves 

(F Bb Am Bb) x4

      Bb
And I want this night...



17. The Hazards of Love 4 (The Drowning)

NORMAL TUNING

Originally tabbed by: DonTago 

G

Verse 1:
Em                                                        G
Margaret arrayed the rocks around the hull before it was sinking 
Em                                                             G
A million stones, a million bones, a million holes within the chinking
Am                             C                                          
And painting rings around your eyes these peppered holes
                 G
So filled with crying
Am                          C                                  G
A whisper weighed upon the tattered down where you and I were lying 

Verse 2: 
Em                                                    G
Tell me now, tell me this, A forest's son, a river's daughter 
Em                                                              G 
A willow on the willow wisp, our ghosts will wander all of the water
Am                        C                                     G 
So let's be married here today these rushing waves to bare our witness 
Am                          C                             G       Em  D
And we will lie like river stones rolling only where it takes us 

Chorus: 
    C                Am           G         Em              D
But I pulled you and I called you here   (Didn’t I, didn’t I, didn’t I?)
    Am               C             G       Em
And I caught you and I brought you here  (Didn’t I)
       D         Am   C/B   C       D                 G
These hazards of love,        never more will trouble us

Em G Em G
Am C G Am C G

Verse 3:
Em                                                             G
Oh Margaret the lapping waves are licking quietly at our ankles
Em                                                                   G
Another bow another breath this brilliant chills come for the shackle
Am                           C                                      G
With this long last rush of air we speak our vows and sorry whispers
Am                            C                                            G
When the waves came crashing down, he closed his eyes and softly kissed her

Chorus:
    C                Am           G         Em              D
But I pulled you and I called you here   (Didn’t I, didn’t I, didn’t I?)
    Am               C             G       Em
And I caught you and I brought you here  (Didn’t I)
       D         Am   C/B   C       D                 G
These hazards of love,        never more will trouble us 
              D      Am   C/B   C       D                 G
And these hazards of love,        never more will trouble us
comments
print report bad tab
1 comment total.
0 reply
thesokman76 wrote on January 6 2013, 05:43 pm

some of the chords in just a few songs should be looked over;
Wanting Comes in Waves(including Reprise)
The Queen's Rebuke/The Crossing
Annan Water

otherwise this tab was wonderful. Thanks a bunch :)

I want to post or [tab]
guest
You may want to rate the tab now too:
select rating
Please do not post tabs as comments. Select "correction" instead!