Oops, an error
Loading. Please wait.

A Gipsys Kiss Bass Tab

705 views 3 this week
no commentswrite comment
1 2 3 4 5
excellent!
x 1
add to favorites launch autoscroll
font size
0
reset
Autoscroll
+/-
esc
set tempo
stop
WARNING: You are trying to view
                                    content from Ultimate-Guitar.com
                                    in an unauthorized application,
                                    which is prohibited.

                                    Please use an official Ultimate
                                    Guitar Tabs application for iPhone,
                                    iPad or Android to access legitimate
                                    chords, guitar, bass, and drum tabs
                                    from Ultimate-Guitar.com database.

                                    Type "ultimate guitar tabs" in Apple
                                    App Store's or Android Market's
                                    search to find the application.
                              A Gipsy's Kiss                               


                                                                Deep Purple
Bass



     E  E  E  E  E  E  E  E     E  E  E  E  E  E  E  E   
G||--0--0--0--0--0--0--0--0--|--0--0--0--0--0--0--0--0--|
D||--------------------------|--------------------------|
A||--------------------------|--------------------------|
E||--------------------------|--------------------------|


  E  E  E  E  E  E  E  E     E  E  E  E  E  E  E  E   
--0--0--0--0--0--0--0--0--|--0--0--0--0--0--0--0--0--|
--------------------------|--------------------------|
--------------------------|--------------------------|
--------------------------|--------------------------|


  E  E  E  E  E  E  E  E     E  E  E  E  E  E  E  E   
--0--0--0--0--0--0--0--0--|--0--0--0--0--0--0--0--0--|
--------------------------|--------------------------|
--------------------------|--------------------------|
--------------------------|--------------------------|


  E  E  E  E  E  E  E  E     E  E  E  E  E  E  E  E   
--0--0--0--0--0--0--0--0--|--0--0--0--0--0--0--0--0--|
--------------------------|--------------------------|
--------------------------|--------------------------|
--------------------------|--------------------------|


  E  E  E  E  E  E  E  E     E  E  E  E  E  E  E  E   
--0--0--0--0--0--0--0--0--|--0--0--0--0--0--0--0--0--|
--------------------------|--------------------------|
--------------------------|--------------------------|
--------------------------|--------------------------|


  E  E  E  E  E  E  E  E     E  E  E  E  E  E  E  E   
--0--0--0--0--0--0--0--0--|--0--0--0--0--0--0--0--0--|
--------------------------|--------------------------|
--------------------------|--------------------------|
--------------------------|--------------------------|


  E  E  E  E  E  E  E  E     E  E  E  E  E  E  E  E   
--0--0--0--0--0--0--0--0--|--0--0--0--0--0--0--0--0--|
--------------------------|--------------------------|
--------------------------|--------------------------|
--------------------------|--------------------------|


  E  E  E  E  E  E  E  E     E  E  E  E  E  E  Q     
--0--0--0--0--0--0--0--0--|--0--0--3--0-------------|
--------------------------|--------------3--0-------|
--------------------------|--------------------1----|
--------------------------|-------------------------|


  E  E  E  E  E  E  E  E     E  E  E  E  E  E  E  E   
--------------------------|--------------------------|
--------------------------|--------------------------|
--------------------------|--------------------------|
--3--3--3--3--3--3--3--3--|--3--3--3--3--3--3--3--3--|


  E  E  E  E  E  E  E  E     Q    E  E  E  E  E  E   
--------------------------|-------------------------|
--------------------------|-------------------------|
-----------------------3--|--L----3--3--3--3--3--3--|
--3--3--3--3--3--3--3-----|-------------------------|


  E  E  E  E  E  E  E  E     E  E  E  E  E  E  E  E   
--------------------------|--------------------------|
--------------------------|--------------------------|
--------------------------|--------------------------|
--3--3--3--3--3--3--3--3--|--3--3--3--3--3--3--3--3--|


  Q.       Q.     Q       E  Q.       Q    Q     
------------------0----|--L--5------7g8----7----|
-----------------------|------------------------|
--3------3g6-----------|------------------------|
-----------------------|------------------------|


  E  E  E  E  E  E  E  E     E  E  E  E  E  E  E  E   
--------------------------|--------------------------|
--------------------------|--------------------------|
--------------------------|--------------------------|
--3--3--3--3--3--3--3--3--|--3--3--3--3--3--3--3--3--|


  E  E  E  E  E  E  E  E     Q    E  E  E  E  E  E   
--------------------------|-------------------------|
--------------------------|-------------------------|
-----------------------3--|--L----3--3--3--3--3--3--|
--3--3--3--3--3--3--3-----|-------------------------|


  E  E  E  E  E  E  E  E     E  E  E  E  E  E  E  E   
--------------------------|--------------------------|
--------------------------|--------------------------|
--------------------------|--------------------------|
--3--3--3--3--3--3--3--3--|--3--3--3--3--3--3--3--3--|


  Q.       Q.     Q       E  Q.       Q    Q     
------------------0----|--L--5------7g8----7----|
-----------------------|------------------------|
--3------3g6-----------|------------------------|
-----------------------|------------------------|


  E  E  E  E  E  E  E  E     E  E  E  E  E  E  E  E   
--------------------------|--------------------------|
--------------------------|--------------------------|
--------------------------|--------------------------|
--3--3--3--3--3--3--3--3--|--3--3--3--3--3--3--3--3--|


  E  E  E  E  E  E  E  E     E  E  E  E  E  E  E  E   
--------------------------|--------------------------|
--------------------------|--------------------------|
--------------------------|--------------------------|
--3--3--3--3--3--3--3--3--|--3--3--3--3--3--3--3--3--|


  E  E  E  E  E  E  E  E     E  E  E  E  E  E  E  E   
--------------------------|--------------------------|
--------------------------|--------------------------|
--1--1--1--1--1--1--1--1--|--1--1--1--1--1--1--1--1--|
--------------------------|--------------------------|


  E  E  E  E  E  E  E  E     E  E  E  E  E  E  E  E   
--------------------------|--------------------------|
--------------------------|--------------------------|
--1--1--1--1--1--1--1--1--|--------------------------|
--------------------------|--1--1--1--1--2--2--2--2--|


  E  E  E  E  E  E  E  E     E  E  E  E  E  E  E  E   
--------------------------|--------------------------|
--------------------------|--------------------------|
--------------------------|--------------------------|
--3--3--3--3--3--3--3--3--|--3--3--3--3--3--3--3--3--|


  E  E  E  E  E  E  E  E     E  E  E  E  E  E  E  E   
--------------------------|--------------------------|
--------------------------|--------------------------|
--------------------------|--------------------------|
--3--3--3--3--3--3--3--3--|--3--3--3--3--3--3--3--3--|


  E  E  E  E  E  E  E  E     E  E  E  E  E  E  E  E   
--------------------------|--------------------------|
--------------------------|--------------------------|
--3--3--3--3--3--3--3--3--|--3--3--3--3--3--3--3--3--|
--------------------------|--------------------------|


  E  E  E  E  E  E  E  E     E  E  E  E  E  E  Q     
--------------------------|-------------------------|
--------------------------|-------------------------|
--------------------------|-----------1--1--1--3----|
--3--3--3--3--3--3--3--3--|--3--3--3----------------|


  E  E  E  E  E  E  E  E     E  E  E  E  E  E  E  E   
--------------------------|--------------------------|
--0--0--0--0--0--0--0--0--|--0--0--0--0--0--0--0--0--|
--------------------------|--------------------------|
--------------------------|--------------------------|


  E  E  E  E  E  E  E  E     E  E  E  E  E  E  E  E   
--------------------------|--------------------------|
--------------------------|--------------------------|
--0--0--0--0--0--0--0--0--|--0--0--0--0--0--0--0--0--|
--------------------------|--------------------------|


  E  E  E  E  E  E  Q       E  E  E  E  E  E  Q     
-------------------------|-------------------------|
-------------------------|-------------------------|
--3--3--3--3--3--3-------|--3--3--3--3--3--3-------|
--------------------3----|--------------------3----|


  E  E  E  E  E  E  Q       E  E  E  E  E  E  Q     
-------------------------|-------------------------|
-------------------------|-------------------------|
--3--3--3--3--3--3-------|--2--2--2--2--2--2-------|
--------------------3----|--------------------3----|


  E  E  E  E  E  E  E  E     E  E  E  E  E  E  Q     
--------------------------|-------------------------|
--------------------------|--------------------0----|
--0--0--0--0--0--0--0--0--|--0--0--0--3--3--3-------|
--------------------------|-------------------------|


  Q    E  E  E  E  E  E     E  E  E  E  E  E  E  E   
-------------------------|--------------------------|
--2----2--2--2--2--2--2--|--2--2--2--2--2--2--2--2--|
-------------------------|--------------------------|
-------------------------|--------------------------|


  Q    E  E  E  E  Q       Q    E  E  E  E  Q       Q.     E  E  E  Q     
------------------------|------------------------|-----------------------|
--3----3--3--3--1-------|--3----3--3--3--1-------|--3------2--3--2-------|
-------------------3----|-------------------3----|------------------3----|
------------------------|------------------------|-----------------------|


  Q.     E  E  E  E  E     E  E  E  E  E  E  E  E     H        H         
------------------------|--------------------------|--------------------|
--0------0--0--0--0--0--|--0--0--0--0--0--0--0--0--|--0-----------------|
------------------------|--------------------------|-----------3--------|
------------------------|--------------------------|--------------------|


  H        H           E  E  E  E  E  E  E  E     E  E  E  E  E  E  E  E   
--------------------|--------------------------|--------------------------|
--------------------|--------------------------|--------------------------|
--2--------0--------|--------------------------|--------------------------|
--------------------|--3--3--3--3--3--3--3--3--|--3--3--3--3--3--3--3--3--|


  E  E  E  E  E  E  E  E     Q    E  E  E  E  E  E   
--------------------------|-------------------------|
--------------------------|-------------------------|
-----------------------3--|--L----3--3--3--3--3--3--|
--3--3--3--3--3--3--3-----|-------------------------|


  E  E  E  E  E  E  E  E     E  E  E  E  E  E  E  E   
--------------------------|--------------------------|
--------------------------|--------------------------|
--------------------------|--------------------------|
--3--3--3--3--3--3--3--3--|--3--3--3--3--3--3--3--3--|


  Q.       Q.     Q       E  Q.       Q    Q     
------------------0----|--L--5------7g8----7----|
-----------------------|------------------------|
--3------3g6-----------|------------------------|
-----------------------|------------------------|


  E  E  E  E  E  E  E  E     E  E  E  E  E  E  E  E   
--------------------------|--------------------------|
--------------------------|--------------------------|
--------------------------|--------------------------|
--3--3--3--3--3--3--3--3--|--3--3--3--3--3--3--3--3--|


  E  E  E  E  E  E  E  E     E  E  E  E  E  E  E  E   
--------------------------|--------------------------|
--------------------------|--------------------------|
--------------------------|--------------------------|
--3--3--3--3--3--3--3--3--|--3--3--3--3--3--3--3--3--|


  E  E  E  E  E  E  E  E     E  E  E  E  E  E  E  E   
--------------------------|--------------------------|
--------------------------|--------------------------|
--1--1--1--1--1--1--1--1--|--1--1--1--1--1--1--1--1--|
--------------------------|--------------------------|


  E  E  E  E  E  E  E  E     E  E  E  E  E  E  E  E   
--------------------------|--------------------------|
--------------------------|--------------------------|
--1--1--1--1--1--1--1--1--|--------------------------|
--------------------------|--1--1--1--1--2--2--2--2--|


  E  E  E  E  E  E  E  E     E  E  E  E  E  E  E  E   
--------------------------|--------------------------|
--------------------------|--------------------------|
--------------------------|--------------------------|
--3--3--3--3--3--3--3--3--|--3--3--3--3--3--3--3--3--|


  E  E  E  E  E  E  E  E     E  E  E  E  E  E  E  E   
--------------------------|--------------------------|
--------------------------|--------------------------|
--------------------------|--------------------------|
--3--3--3--3--3--3--3--3--|--3--3--3--3--3--3--3--3--|


  E  E  E  E  E  E  E  E     E  E  E  E  E  E  E  E   
--------------------------|--------------------------|
--------------------------|--------------------------|
--3--3--3--3--3--3--3--3--|--3--3--3--3--3--3--3--3--|
--------------------------|--------------------------|


  E  E  E  E  E  E  E  E     E  E  E  E  E  E  Q     
--------------------------|-------------------------|
--------------------------|-------------------------|
--------------------------|-----------1--1--1--3----|
--3--3--3--3--3--3--3--3--|--3--3--3----------------|


  E  E  E  E  E  E  E  E     E  E  E  E  E  E  E  E   
--------------------------|--------------------------|
--0--0--0--0--0--0--0--0--|--0--0--0--0--0--0--0--0--|
--------------------------|--------------------------|
--------------------------|--------------------------|


  E  E  E  E  E  E  E  E     E  E  E  E  E  E  E  E   
--------------------------|--------------------------|
--------------------------|--------------------------|
--0--0--0--0--0--0--0--0--|--0--0--0--0--0--0--0--0--|
--------------------------|--------------------------|


  E  E  E  E  E  E  Q       E  E  E  E  E  E  Q     
-------------------------|-------------------------|
-------------------------|-------------------------|
--3--3--3--3--3--3-------|--3--3--3--3--3--3-------|
--------------------3----|--------------------3----|


  E  E  E  E  E  E  Q       E  E  E  E  E  E  Q     
-------------------------|-------------------------|
-------------------------|-------------------------|
--3--3--3--3--3--3-------|--2--2--2--2--2--2-------|
--------------------3----|--------------------3----|


  E  E  E  E  E  E  E  E     E  E  E  E  E  E  Q     
--------------------------|-------------------------|
--------------------------|--------------------0----|
--0--0--0--0--0--0--0--0--|--0--0--0--3--3--3-------|
--------------------------|-------------------------|


  Q    E  E  E  E  E  E     E  E  E  E  E  E  E  E   
-------------------------|--------------------------|
--2----2--2--2--2--2--2--|--2--2--2--2--2--2--2--2--|
-------------------------|--------------------------|
-------------------------|--------------------------|


  Q    E  E  E  E  Q       Q    E  E  E  E  Q       Q.     E  E  E  Q     
------------------------|------------------------|-----------------------|
--3----3--3--3--1-------|--3----3--3--3--1-------|--3------2--3--2-------|
-------------------3----|-------------------3----|------------------3----|
------------------------|------------------------|-----------------------|


  Q.     E  E  E  E  E     E  E  E  E  E  E  E  E     H        H         
------------------------|--------------------------|--------------------|
--0------0--0--0--0--0--|--0--0--0--0--0--0--0--0--|--0-----------------|
------------------------|--------------------------|-----------3--------|
------------------------|--------------------------|--------------------|


  H        H           E  E  E  E  E  E  E  E     E  E  E  E  E  E  E  E   
--------------------|--------------------------|--------------------------|
--------------------|--------------------------|--------------------------|
--2--------0--------|--------------------------|--------------------------|
--------------------|--3--3--3--3--3--3--3--3--|--3--3--3--3--3--3--3--3--|


  E  E  E  E  E  E  E  E     Q    E  E  E  E  E  E   
--------------------------|-------------------------|
--------------------------|-------------------------|
-----------------------3--|--L----3--3--3--3--3--3--|
--3--3--3--3--3--3--3-----|-------------------------|


  E  E  E  E  E  E  E  E     E  E  E  E  E  E  E  E   
--------------------------|--------------------------|
--------------------------|--------------------------|
--------------------------|--------------------------|
--3--3--3--3--3--3--3--3--|--3--3--3--3--3--3--3--3--|


  Q.       Q.     Q       E  Q.       Q    Q     
------------------0----|--L--5------7g8----7----|
-----------------------|------------------------|
--3------3g6-----------|------------------------|
-----------------------|------------------------|


  E  E  E  E  E  E  E  E     E  E  E  E  E  E  E  E   
--------------------------|--------------------------|
--------------------------|--------------------------|
--------------------------|--------------------------|
--3--3--3--3--3--3--3--3--|--3--3--3--3--3--3--3--3--|


  E  E  E  E  E  E  E  E     Q    E  E  E  E  E  E   
--------------------------|-------------------------|
--------------------------|-------------------------|
-----------------------3--|--L----3--3--3--3--3--3--|
--3--3--3--3--3--3--3-----|-------------------------|


  E  E  E  E  E  E  E  E     E  E  E  E  E  E  E  E   
--------------------------|--------------------------|
--------------------------|--------------------------|
--------------------------|--------------------------|
--3--3--3--3--3--3--3--3--|--3--3--3--3--3--3--3--3--|


  Q.       Q.     Q       E  Q.       Q    Q       Q    Q    Q    Q     
------------------0----|--L--5------7g8----7----|----------------------|
-----------------------|------------------------|----------------------|
--3------3g6-----------|------------------------|----------------------|
-----------------------|------------------------|-------3---------3----|


  Q    Q    Q    Q       Q    Q    Q    Q       Q    Q    Q    Q     
----------------------|----------------------|----------------------|
----------------------|----------------------|----------------------|
----------------------|-----------------1----|-------3---------3----|
-------3---------3----|-------3--------------|----------------------|


  Q    Q    Q    Q       Q    Q    Q    Q       Q    Q    Q    Q     
----------------------|----------------------|----------------------|
-------0---------0----|-------0---------0----|-------0---------0----|
----------------------|----------------------|----------------------|
----------------------|----------------------|----------------------|


  Q    Q    Q    Q       Q    Q    Q    Q       Q    Q    Q    Q     
-------0--------------|----------------------|----------------------|
-----------------0----|----------------------|----------------------|
----------------------|----------------------|----------------------|
----------------------|-------3---------3----|-------3---------3----|


  Q    Q    Q    Q       Q    Q    Q    Q       Q    Q    Q    Q     
----------------------|----------------------|----------------------|
----------------------|----------------------|-------0---------0----|
-----------------1----|-------3---------3----|----------------------|
-------3--------------|----------------------|----------------------|


  Q    Q    Q    Q       Q    Q    Q    Q       Q    Q    Q    Q     
----------------------|-------7--------------|----------------------|
-------0---------0----|-----------------0----|-------0---------0----|
----------------------|----------------------|----------------------|
----------------------|----------------------|----------------------|


  Q    Q.     E  Q       Q.     Q    E  Q       H        E  E  Q     
----------------------|-----------------0----|----------------------|
----------------------|---------1----3-------|----------------------|
--3----3------3--3----|--3-------------------|--3--------3--3--3----|
----------------------|----------------------|----------------------|


  Q.     Q    E  Q       H        E  E  Q       Q.     Q    E  Q     
---------0------------|----------------------|-----------------0----|
--------------3--1----|----------------------|---------1----3-------|
--3-------------------|--3--------3--3--3----|--3-------------------|
----------------------|----------------------|----------------------|


  Q    Q    E  E  E  E     Q    Q    Q    Q       Q    E  E  E  E  E  E   
------------------------|-----------------0----|-------------------------|
------------------------|-------1----3---------|--2----2--2--2--2--2--2--|
--3----3----3--3--3--3--|--3-------------------|-------------------------|
------------------------|----------------------|-------------------------|


  E  E  E  E  E  E  E  E     E  E  E  E  E  E  E  E   
--------------------------|--------------------------|
--2--2--2--2--2--2--2--2--|--2--2--2--2--2--2--2--2--|
--------------------------|--------------------------|
--------------------------|--------------------------|


  E  E  E  E  E  E  E  E     Q    E  E  E  E  E  E   
--------------------------|-------------------------|
--2--2--2--2--2--2--2--2--|--2----2--2--2--2--2--2--|
--------------------------|-------------------------|
--------------------------|-------------------------|


  E  E  E  E  E  E  E  E     Q    E  E  E  E  E  E   
--------------------------|-------------------------|
--2--2--2--2--2--2--2--2--|--2----2--2--2--2--2--2--|
--------------------------|-------------------------|
--------------------------|-------------------------|


  E  Q    Q.     Q       Q    E  E  E  E  E  E   
----------------------|-------------------------|
--2--2----2------2----|-------------------------|
----------------------|--0----0--0--0--0--0--0--|
----------------------|-------------------------|


  E  E  E  E  E  E  E  E     E  E  E  E  E  E  E  E   
--------------------------|--------------------------|
--------------------------|--------------------------|
--0--0--0--0--0--0--0--0--|--0--0--0--0--0--0--0--0--|
--------------------------|--------------------------|


  E  E  E  E  E  E  E  E     Q    E  E  E  E  E  E   
--------------------------|-------------------------|
--------------------------|-------------------------|
--0--0--0--0--0--0--0--0--|-------------------------|
--------------------------|--1----1--1--1--1--1--1--|


  Q    E  E  E  E  E  E     Q.     E  E  E  E  E   
-------------------------|------------------------|
-------------------------|---------2--2--2--2--2--|
-------------------------|------------------------|
--1----1--1--1--1--1--1--|--0---------------------|


  E  E  E  E  E  E  Q       Q    E  E  E  E  E  E   
-------------------------|-------------------------|
--2--2--2--2--2--0-------|-------------------------|
--------------------3----|--0----0--0--0--0--0--0--|
-------------------------|-------------------------|


  E  E  E  E  E  E  E  E     E  E  E  E  E  E  E  E   
--------------------------|--------------------------|
--------------------------|--------------------------|
--0--0--0--0--0--0--0--0--|--0--0--0--0--0--0--0--0--|
--------------------------|--------------------------|


  E  E  E  E  E  E  E  E     Q    E  E  E  E  E  E   
--------------------------|-------------------------|
--------------------------|-------------------------|
--0--0--0--0--0--0--0--0--|-------------------------|
--------------------------|--1----1--1--1--1--1--1--|


  Q    E  E  E  E  E  E     Q.     E  E  E  E  E   
-------------------------|------------------------|
-------------------------|---------2--2--2--2--2--|
-------------------------|------------------------|
--1----1--1--1--1--1--1--|--0---------------------|


  E  E  E  E  E  E  Q       Q    E  Q    E  E  E   
-------------------------|------------------------|
--2--2--2--2--2--2--2----|--0-------0----0--------|
-------------------------|------------------3--0--|
-------------------------|------------------------|


  Q    E  Q    E  E  E     Q    E  Q    E  E  E     Q    E  Q    E  Q     
------------------------|------------------------|-----------------------|
--0-------0----0--------|--0-------0----0--------|--0-------0----0-------|
------------------3--0--|------------------3--0--|------------------3----|
------------------------|------------------------|-----------------------|


  Q    E  E  E  E  E  E     Q    E  Q    E  E  E   
-------------------------|------------------------|
-------------------------|------------------------|
--0-------0--0--0--------|--0-------0----0--------|
-------------------3--0--|------------------3--0--|


  Q    E  Q    E  E  E     Q    E  E  E  E  E  E     Q    E  Q    E  Q     
------------------------|-------------------------|-----------------------|
------------------------|-------------------------|-----------------------|
--0-------0----0--------|--0-------0--0--0--------|------------------3----|
------------------3--0--|-------------------3--0--|--1-------1----1-------|


  Q    E  Q    E  Q       Q    E  Q    E  Q       Q    E  Q    E  Q     
-----------------------|-----------------------|-----------------------|
-----------------------|-----------------------|-----------------------|
------------------3----|------------------3----|------------------3----|
--1-------1----1-------|--1-------1----1-------|--1-------1----1-------|


  Q    E  Q    E  Q       Q    E  Q    E  Q       Q    E  Q    E  Q     
-----------------------|-----------------------|-----------------------|
--0-------0----0-------|--0-------0----0-------|--0-------0----0-------|
------------------0----|------------------0----|------------------0----|
-----------------------|-----------------------|-----------------------|


  Q    Q    Q    Q       E  E  E  E  E  E  E  E   
----------------------|--------------------------|
--0-------------------|--------------------------|
-------3----1----0----|--------------------------|
----------------------|--3--3--3--3--3--3--3--3--|


  E  E  E  E  E  E  E  E     E  E  E  E  E  E  E  E   
--------------------------|--------------------------|
--------------------------|--------------------------|
--------------------------|-----------------------3--|
--3--3--3--3--3--3--3--3--|--3--3--3--3--3--3--3-----|


  Q    E  E  E  E  E  E     E  E  E  E  E  E  E  E   
-------------------------|--------------------------|
-------------------------|--------------------------|
--L----3--3--3--3--3--3--|--------------------------|
-------------------------|--3--3--3--3--3--3--3--3--|


  E  E  E  E  E  E  E  E     Q.       Q.     Q     
--------------------------|------------------0----|
--------------------------|-----------------------|
--------------------------|--3------3g6-----------|
--3--3--3--3--3--3--3--3--|-----------------------|


  E  Q.       Q    Q       E  E  E  E  E  E  E  E   
--L--5------7g8----7----|--------------------------|
------------------------|--------------------------|
------------------------|--------------------------|
------------------------|--3--3--3--3--3--3--3--3--|


  E  E  E  E  E  E  E  E     E  E  E  E  E  E  E  E   
--------------------------|--------------------------|
--------------------------|--------------------------|
--------------------------|--------------------------|
--3--3--3--3--3--3--3--3--|--3--3--3--3--3--3--3--3--|


  E  E  E  E  E  E  E  E     E  E  E  E  E  E  E  E   
--------------------------|--------------------------|
--------------------------|--------------------------|
--------------------------|--1--1--1--1--1--1--1--1--|
--3--3--3--3--3--3--3--3--|--------------------------|


  E  E  E  E  E  E  E  E     E  E  E  E  E  E  E  E   
--------------------------|--------------------------|
--------------------------|--------------------------|
--1--1--1--1--1--1--1--1--|--1--1--1--1--1--1--1--1--|
--------------------------|--------------------------|


  E  E  E  E  E  E  E  E     E  E  E  E  E  E  E  E   
--------------------------|--------------------------|
--------------------------|--------------------------|
--------------------------|--------------------------|
--1--1--1--1--2--2--2--2--|--3--3--3--3--3--3--3--3--|


  E  E  E  E  E  E  E  E     E  E  E  E  E  E  E  E   
--------------------------|--------------------------|
--------------------------|--------------------------|
--------------------------|--------------------------|
--3--3--3--3--3--3--3--3--|--3--3--3--3--3--3--3--3--|


  E  E  E  E  E  E  E  E     E  E  E  E  E  E  E  E   
--------------------------|--------------------------|
--------------------------|--------------------------|
--------------------------|--3--3--3--3--3--3--3--3--|
--3--3--3--3--3--3--3--3--|--------------------------|


  E  E  E  E  E  E  E  E     E  E  E  E  E  E  E  E   
--------------------------|--------------------------|
--------------------------|--------------------------|
--3--3--3--3--3--3--3--3--|--------------------------|
--------------------------|--3--3--3--3--3--3--3--3--|


  E  E  E  E  E  E  Q       E  E  E  E  E  E  E  E   
-------------------------|--------------------------|
-------------------------|--0--0--0--0--0--0--0--0--|
-----------1--1--1--3----|--------------------------|
--3--3--3----------------|--------------------------|


  E  E  E  E  E  E  E  E     E  E  E  E  E  E  E  E   
--------------------------|--------------------------|
--0--0--0--0--0--0--0--0--|--------------------------|
--------------------------|--0--0--0--0--0--0--0--0--|
--------------------------|--------------------------|


  E  E  E  E  E  E  E  E     E  E  E  E  E  E  Q     
--------------------------|-------------------------|
--------------------------|-------------------------|
--0--0--0--0--0--0--0--0--|--3--3--3--3--3--3-------|
--------------------------|--------------------3----|


  E  E  E  E  E  E  Q       E  E  E  E  E  E  Q     
-------------------------|-------------------------|
-------------------------|-------------------------|
--3--3--3--3--3--3-------|--3--3--3--3--3--3-------|
--------------------3----|--------------------3----|


  E  E  E  E  E  E  Q       E  E  E  E  E  E  E  E   
-------------------------|--------------------------|
-------------------------|--------------------------|
--2--2--2--2--2--2-------|--0--0--0--0--0--0--0--0--|
--------------------3----|--------------------------|


  E  E  E  E  E  E  Q       Q    E  E  E  E  E  E   
-------------------------|-------------------------|
--------------------0----|--2----2--2--2--2--2--2--|
--0--0--0--3--3--3-------|-------------------------|
-------------------------|-------------------------|


  E  E  E  E  E  E  E  E     Q    E  E  E  E  Q     
--------------------------|------------------------|
--2--2--2--2--2--2--2--2--|--3----3--3--3--1-------|
--------------------------|-------------------3----|
--------------------------|------------------------|


  Q    E  E  E  E  Q       Q.     E  E  E  Q       Q.     E  E  E  Q     
------------------------|-----------------------|-----------------------|
--3----3--3--3--1-------|--3------2--3--2-------|--0------0--0--0--0----|
-------------------3----|------------------3----|-----------------------|
------------------------|-----------------------|-----------------------|


  Q.     Q    E  Q       Q.     E  Q.     E     H        H         
----------------------|----------------------|--------------------|
--0------0------------|--0------0------------|--------------------|
--------------3--0----|------------3------3--|--1--------0--------|
----------------------|----------------------|--------------------|


  E  E  E  E  E  E  E  E     E  E  E  E  E  E  E  E   
--------------------------|--------------------------|
--------------------------|--------------------------|
--------------------------|--------------------------|
--3--3--3--3--3--3--3--3--|--3--3--3--3--3--3--3--3--|


  E  E  E  E  E  E  E  E     Q    E  E  E  E  E  E   
--------------------------|-------------------------|
--------------------------|-------------------------|
-----------------------3--|--L----3--3--3--3--3--3--|
--3--3--3--3--3--3--3-----|-------------------------|


  E  E  E  E  E  E  E  E     E  E  E  E  E  E  E  E   
--------------------------|--------------------------|
--------------------------|--------------------------|
--------------------------|--------------------------|
--3--3--3--3--3--3--3--3--|--3--3--3--3--3--3--3--3--|


  Q.       Q.     Q       E  Q.       Q    Q     
------------------0----|--L--5------7g8----7----|
-----------------------|------------------------|
--3------3g6-----------|------------------------|
-----------------------|------------------------|


  E  E  E  E  E  E  E  E     E  E  E  E  E  E  E  E   
--------------------------|--------------------------|
--------------------------|--------------------------|
--------------------------|--------------------------|
--3--3--3--3--3--3--3--3--|--3--3--3--3--3--3--3--3--|


  E  E  E  E  E  E  E  E     Q    E  E  E  E  E  E   
--------------------------|-------------------------|
--------------------------|-------------------------|
-----------------------3--|--L----3--3--3--3--3--3--|
--3--3--3--3--3--3--3-----|-------------------------|


  E  E  E  E  E  E  E  E     E  E  E  E  E  E  E  E   
--------------------------|--------------------------|
--------------------------|--------------------------|
--------------------------|--------------------------|
--3--3--3--3--3--3--3--3--|--3--3--3--3--3--3--3--3--|


  Q.       Q.     Q       E  Q.       Q    Q     
------------------0----|--L--5------7g8----7----|
-----------------------|------------------------|
--3------3g6-----------|------------------------|
-----------------------|------------------------|


  E  E  E  E  E  E  E  E     E  E  E  E  E  E  E  E   
--------------------------|--------------------------|
--------------------------|--------------------------|
--------------------------|--------------------------|
--3--3--3--3--3--3--3--3--|--3--3--3--3--3--3--3--3--|


  E  E  E  E  E  E  E  E     Q    E  E  E  E  E  E   
--------------------------|-------------------------|
--------------------------|-------------------------|
-----------------------3--|--L----3--3--3--3--3--3--|
--3--3--3--3--3--3--3-----|-------------------------|


  E  E  E  E  E  E  E  E     E  E  E  E  E  E  E  E   
--------------------------|--------------------------|
--------------------------|--------------------------|
--------------------------|--------------------------|
--3--3--3--3--3--3--3--3--|--3--3--3--3--3--3--3--3--|


  Q.       Q.     Q       E  Q.       Q    Q     
------------------0----|--L--5------7g8----7----|
-----------------------|------------------------|
--3------3g6-----------|------------------------|
-----------------------|------------------------|


  E  E  E  E  E  E  E  E     E  E  E  E  E  E  E  E   
--------------------------|--------------------------|
--------------------------|--------------------------|
--------------------------|--------------------------|
--3--3--3--3--3--3--3--3--|--3--3--3--3--3--3--3--3--|


  E  E  E  E  E  E  E  E     Q    E  E  E  E  E  E   
--------------------------|-------------------------|
--------------------------|-------------------------|
-----------------------3--|--L----3--3--3--3--3--3--|
--3--3--3--3--3--3--3-----|-------------------------|


  E  E  E  E  E  E  E  E     E  E  E  E  E  E  E  E   
--------------------------|--------------------------|
--------------------------|--------------------------|
--------------------------|--------------------------|
--3--3--3--3--3--3--3--3--|--3--3--3--3--3--3--3--3--|


  Q.       Q.     Q       E  Q.       Q    Q     
------------------0----|--L--5------7g8----7----|
-----------------------|------------------------|
--3------3g6-----------|------------------------|
-----------------------|------------------------|


  E  E  E  E  E  E  E  E     E  E  E  E  E  E  E  E   
--------------------------|--------------------------|
--------------------------|--------------------------|
--------------------------|--------------------------|
--3--3--3--3--3--3--3--3--|--3--3--3--3--3--3--3--3--|


  E  E  E  E  E  E  E  E     Q    E  E  E  E  E  E   
--------------------------|-------------------------|
--------------------------|-------------------------|
-----------------------3--|--L----3--3--3--3--3--3--|
--3--3--3--3--3--3--3-----|-------------------------|


  E  E  E  E  E  E  E  E     E  E  E  E  E  E  E  E   
--------------------------|--------------------------|
--------------------------|--------------------------|
--------------------------|--------------------------|
--3--3--3--3--3--3--3--3--|--3--3--3--3--3--3--3--3--|


  Q.       Q.     Q       E  Q.       Q    Q     
------------------0----|--L--5------7g8----7----|
-----------------------|------------------------|
--3------3g6-----------|------------------------|
-----------------------|------------------------|


  E  E  E  E  E  E  E  E     E  E  E  E  E  E  E  E   
--------------------------|--------------------------|
--------------------------|--------------------------|
--------------------------|--------------------------|
--3--3--3--3--3--3--3--3--|--3--3--3--3--3--3--3--3--|


  E  E  E  E  E  E  E  E     Q    E  E  E  E  E  E   
--------------------------|-------------------------|
--------------------------|-------------------------|
-----------------------3--|--L----3--3--3--3--3--3--|
--3--3--3--3--3--3--3-----|-------------------------|


  E  E  E  E  E  E  E  E     E  E  E  E  E  E  E  E   
--------------------------|--------------------------|
--------------------------|--------------------------|
--------------------------|--------------------------|
--3--3--3--3--3--3--3--3--|--3--3--3--3--3--3--3--3--|


  Q.       Q.     Q       E  Q.       Q    Q     
------------------0----|--L--5------7g8----7----|
-----------------------|------------------------|
--3------3g6-----------|------------------------|
-----------------------|------------------------|


  E  E  E  E  E  E  E  E     E  E  E  E  E  E  E  E   
--------------------------|--------------------------|
--------------------------|--------------------------|
--------------------------|--------------------------|
--3--3--3--3--3--3--3--3--|--3--3--3--3--3--3--3--3--|


  E  E  E  E  E  E  E  E     Q    E  E  E  E  E  E   
--------------------------|-------------------------|
--------------------------|-------------------------|
-----------------------3--|--L----3--3--3--3--3--3--|
--3--3--3--3--3--3--3-----|-------------------------|


  E  E  E  E  E  E  E  E     E  E  E  E  E  E  E  E   
--------------------------|--------------------------|
--------------------------|--------------------------|
--------------------------|--------------------------|
--3--3--3--3--3--3--3--3--|--3--3--3--3--3--3--3--3--|


  Q.       Q.     Q       E  Q.       Q    Q     
------------------0----|--L--5------7g8----7----|
-----------------------|------------------------|
--3------3g6-----------|------------------------|
-----------------------|------------------------|


  E  E  E  E  E  E  E  E     E  E  E  E  E  E  E  E   
--------------------------|--------------------------|
--------------------------|--------------------------|
--------------------------|--------------------------|
--3--3--3--3--3--3--3--3--|--3--3--3--3--3--3--3--3--|


  E  E  E  E  E  E  E  E     Q    E  E  E  E  E  E    
--------------------------|-------------------------||
--------------------------|-------------------------||
-----------------------3--|--L----3--3--3--3--3--3--||
--3--3--3--3--3--3--3-----|-------------------------||




Duration Legend
---------------
W - whole
H - half
Q - quarter
E - 8th
S - 16th
T - 32nd
X - 64th
. - note dotted
|-n-|  - n-tuplets


Tablature Legend
----------------
L - tied note
x - dead note
g - grace note
(n) - ghost note
> - accentuded note
NH - natural harmonic
AH - artificial harmonic
TH - tapped harmonic
SH - semi harmonic
PH - pitch harmonic
h - hammer on
p - pull off
b - bend
br - bendRelease
pb - preBend
pbr - preBendRelease
brb - bendReleaseBend
\n/ - tremolo bar dip
\n - tremolo bar dive
-/n - tremolo bar Release up
/n\ - tremolo bar inverted dip
/n - tremolo bar return
-\n - tremolo bar Release down
S - shift slide
s - legato slide
/ -  slide into from below or out of upwards
\ -  slide into from above or out of downwards
~ - vibrato
W - wide vibrato
tr - trill
TP - tremolo picking
T - tapping
S - slap
P - pop
< - fade in
^ - brush up
v - brush down
comments
We did not receive enough feedback on this tab! Please rate:
print report bad tab
1 2 3 4 5
I want to post or [tab]
guest
You may want to rate the tab now too:
select rating
Please do not post tabs as comments. Select "correction" instead!