Oops, an error
Loading. Please wait.

A Gipsys Kiss Tab

ver1
ver1

Whole song

Interactive

More versions @911Tabs.com
2,832 views 3 this week
no commentswrite comment
1 2 3 4 5
please rate
add to favorites launch autoscroll
font size
0
reset
Autoscroll
+/-
esc
set tempo
stop
WARNING: You are trying to view
                                    content from Ultimate-Guitar.com
                                    in an unauthorized application,
                                    which is prohibited.

                                    Please use an official Ultimate
                                    Guitar Tabs application for iPhone,
                                    iPad or Android to access legitimate
                                    chords, guitar, bass, and drum tabs
                                    from Ultimate-Guitar.com database.

                                    Type "ultimate guitar tabs" in Apple
                                    App Store's or Android Market's
                                    search to find the application.
                              A Gipsy's Kiss                               


                                                                Deep Purple
Guitar



     W                   W                   E   E  H.            
E||-------------------|-------------------|--8S--6--L------------|
B||-------------------|-------------------|--8S--6--L------------|
G||-------------------|-------------------|----------------------|
D||-------------------|-------------------|----------------------|
A||-------------------|-------------------|----------------------|
E||-------------------|-------------------|----------------------|


                      |---3---|                                      
  W                   E   E   E   Q    H           W                 
--L----------------|--3---L---L---L-------------|-------------------|
--L----------------|--2h--3p--2h--3-------------|-------------------|
-------------------|----------------------------|-------------------|
-------------------|----------------------------|-------------------|
-------------------|----------------------------|-------------------|
-------------------|----------------------------|-------------------|


                                               |---3---|                  
  Q       H.              H.           Q       E   E   E   Q    H         
-----------------------|--------------------|----------------------------|
--6-------L------------|--L-----------------|--2h--3p--2h--3-------------|
--5pbr----L------------|--L-----------------|--2h--3p--2h--3-------------|
-----------------------|--------------------|----------------------------|
-----------------------|--------------------|----------------------------|
-----------------------|--------------------|----------------------------|


                                PM PM          
  H        Q.     E     Q    E  E  E  E  Q     
---------------------|------------------------|
---------------------|------------------------|
---------------------|-------5--------3-------|
---------------------|-------5--------3-------|
---------------------|------------------------|
------------------1--|--3-------3--3----------|


  E   E  E   E  E   E  E   E     Q     E    Q.      E  E   
------------------------------|-------13S--15------13-----|
--2h--3--2h--3--2h--3--2h--3--|---------------------------|
--2h--3--2h--3--2h--3--2h--3--|-------10S--12------10-----|
------------------------------|---------------------------|
------------------------------|---------------------------|
------------------------------|---------------------------|


   E    E    H        Q       E   E  H        Q       W                 
--10h--13p--10-------------|--8p--6--L--------3----|--3----------------|
---------------------------|--6---L--L--------3----|--3----------------|
---------------------------|-----------------------|-------------------|
--12----L----L-------------|-----------------------|-------------------|
---------------------------|-----------------------|-------------------|
---------------------------|-----------------------|-------------------|


  PM PM PM PM PM PM PM PM    PM PM PM PM PM PM PM PM  
  E  E  E  E  E  E  E  E     E  E  E  E  E  E  E  E   
--------------------------|--------------------------|
--------------------------|--------------------------|
--------------------------|--------------------------|
--------------------------|--------------------------|
--------------------------|--------------------------|
--3--3--3--3--3--3--3--3--|--3--3--3--3--3--3--3--3--|


  PM PM PM PM PM PM PM            PM PM PM PM PM PM  
  E  E  E  E  E  E  E  E     Q    E  E  E  E  E  E   
--------------------------|-------------------------|
--------------------------|-------------------------|
--------------------------|-------------------------|
--------------------------|-------------------------|
-----------------------3--|--L----3--3--3--3--3--3--|
--3--3--3--3--3--3--3-----|-------------------------|


  PM PM PM PM PM PM PM PM    PM PM PM PM PM PM PM PM  
  E  E  E  E  E  E  E  E     E  E  E  E  E  E  E  E   
--------------------------|--------------------------|
--------------------------|--------------------------|
--------------------------|--------------------------|
--------------------------|--------------------------|
--------------------------|--------------------------|
--3--3--3--3--3--3--3--3--|--3--3--3--3--3--3--3--3--|


  Q.       Q.     Q       E  Q.       Q    Q     
-----------------------|------------------------|
-----------------------|------------------------|
-----------------------|-----5------7g8----7----|
------------------5----|--L---------------------|
--3------3g6-----------|------------------------|
-----------------------|------------------------|


  PM PM PM PM PM PM PM PM    PM PM PM PM PM PM PM PM  
  E  E  E  E  E  E  E  E     E  E  E  E  E  E  E  E   
--------------------------|--------------------------|
--------------------------|--------------------------|
--------------------------|--------------------------|
--------------------------|--------------------------|
--------------------------|--------------------------|
--3--3--3--3--3--3--3--3--|--3--3--3--3--3--3--3--3--|


  PM PM PM PM PM PM PM            PM PM PM PM PM PM  
  E  E  E  E  E  E  E  E     Q    E  E  E  E  E  E   
--------------------------|-------------------------|
--------------------------|-------------------------|
--------------------------|-------------------------|
--------------------------|-------------------------|
-----------------------3--|--L----3--3--3--3--3--3--|
--3--3--3--3--3--3--3-----|-------------------------|


  PM PM PM PM PM PM PM PM    PM PM PM PM PM PM PM PM  
  E  E  E  E  E  E  E  E     E  E  E  E  E  E  E  E   
--------------------------|--------------------------|
--------------------------|--------------------------|
--------------------------|--------------------------|
--------------------------|--------------------------|
--------------------------|--------------------------|
--3--3--3--3--3--3--3--3--|--3--3--3--3--3--3--3--3--|


  Q.       Q.     Q       E  Q.       Q    Q     
-----------------------|------------------------|
-----------------------|------------------------|
-----------------------|-----5------7g8----7----|
------------------5----|--L---------------------|
--3------3g6-----------|------------------------|
-----------------------|------------------------|


  PM PM PM PM PM PM PM PM    PM PM PM PM PM PM PM PM  
  E  E  E  E  E  E  E  E     E  E  E  E  E  E  E  E   
--------------------------|--------------------------|
--------------------------|--------------------------|
--------------------------|--------------------------|
--------------------------|--------------------------|
--------------------------|--------------------------|
--3--3--3--3--3--3--3--3--|--3--3--3--3--3--3--3--3--|


  PM PM PM PM PM PM PM PM    PM PM PM PM PM PM PM PM  
  E  E  E  E  E  E  E  E     E  E  E  E  E  E  E  E   
--------------------------|--------------------------|
--------------------------|--------------------------|
--------------------------|--------------------------|
--------------------------|--------------------------|
--------------------------|--------------------------|
--3--3--3--3--3--3--3--3--|--3--3--3--3--3--3--3--3--|


  PM PM PM PM PM PM PM PM    PM PM PM PM PM PM PM PM                      
  E  E  E  E  E  E  E  E     E  E  E  E  E  E  E  E     W                 
--------------------------|--------------------------|-------------------|
--------------------------|--------------------------|-------------------|
--------------------------|--3--3--3--3--3--3--3--3--|-------------------|
--------------3--3--3--3--|--------------------------|-------------------|
--1--1--1--1--------------|--------------------------|--1----------------|
--------------------------|--------------------------|-------------------|


  Q    E  E  H           Q    H.              E  E  H.            
----------------------|--------------------|---------------------|
--6----5--7--L--------|--------------------|---------------------|
--5----5--7--L--------|--------------------|---------------------|
--7----7--7--L--------|-------5------------|--------5------------|
----------------------|--------------------|---------------------|
----------------------|--3-----------------|--3--3---------------|


  PM PM PM PM          PM    PM PM PM PM PM PM PM PM  
  E  E  E  E  E  E  E  E     E  E  E  E  E  E  E  E   
--------------------------|--------------------------|
-----------------3--------|--------------------------|
-----------------3--------|--------------------------|
--------------------------|--------------------------|
--------------------------|--------------------------|
--3--3--3--3--3--------3--|--3--3--3--3--3--3--3--3--|


  PM PM PM PM PM PM PM PM                        PM PM PM PM          PM  
  E  E  E  E  E  E  E  E     W                   E  E  E  E  E  E  E  E   
--------------------------|-------------------|--------------------------|
--------------------------|--4----------------|-----------------3--------|
--------------------------|--5----------------|-----------------3--------|
--------------------------|--5----------------|--------------------------|
--3--3--3--3--3--3--3--3--|-------------------|--------------------------|
--------------------------|-------------------|--3--3--3--3--3--------3--|


  PM PM PM PM PM PM PM PM                                             
  E  E  E  E  E  E  E  E       Q    H.              W                 
--------------------------|----------------------|-------------------|
--------------------------|----------------------|-------------------|
--------------------------|---------7------------|--L----------------|
--------------------------|----------------------|-------------------|
--------------------------|--3g5-----------------|-------------------|
--3--3--3--3--3--3--3--3--|----------------------|-------------------|


  E  E  E  E  E  E  E  E     W                   Q    H.            
--------------------------|-------------------|--------------------|
--------------------------|--1----------------|--------------------|
--------------------------|--2----------------|-------5------------|
--------------------------|--2----------------|--------------------|
--0--0--0--0--0--0--0--0--|-------------------|--3-----------------|
--------------------------|-------------------|--------------------|


  W                   Q    H.                W                 
-------------------|--------------------|---------------------|
-------------------|--------------------|---------------------|
--L----------------|-------5------------|--5g7----------------|
-------------------|--------------------|---------------------|
-------------------|--3-----------------|--3g5----------------|
-------------------|--------------------|---------------------|


  PM PM PM PM PM PM PM PM                                                 
  E  E  E  E  E  E  E  E     W                   E  E  E  E  E  E  E  E   
--------------------------|-------------------|--------------------------|
--------------------------|-------------------|--------8--------8-----8--|
--------------------------|--2----------------|--------7--------7-----9--|
--------------------------|-------------------|--------9--------9-----9--|
--0--0--0--0--0--0--0--0--|-------------------|--------7--------7-----7--|
--------------------------|-------------------|--0--0-----0--0-----------|


  W                   Q    E  E  H           W                 
-------------------|----------------------|-------------------|
--L----------------|----------------------|-------------------|
--L----------------|----------------------|-------------------|
--L----------------|----------3--L--------|--L----------------|
--L----------------|----------------------|-------------------|
-------------------|--1----1--------------|-------------------|


  Q.     Q.     Q       W                   W                 
---------------------|-------------------|-------------------|
---------------------|-------------------|-------------------|
---------------------|-------------------|-------------------|
--3------2-----------|--0----------------|--L----------------|
----------------3----|-------------------|-------------------|
---------------------|-------------------|-------------------|


                                           PM PM PM PM PM PM PM PM  
  H        H           W                   E  E  E  E  E  E  E  E   
--------------------|-------------------|--------------------------|
--------------------|-------------------|--------------------------|
--7--------5--------|--7----------------|--------------------------|
--7--------5--------|--7----------------|--------------------------|
--------------------|-------------------|--------------------------|
--------------------|-------------------|--3--3--3--3--3--3--3--3--|


  PM PM PM PM PM PM PM PM    PM PM PM PM PM PM PM     
  E  E  E  E  E  E  E  E     E  E  E  E  E  E  E  E   
--------------------------|--------------------------|
--------------------------|--------------------------|
--------------------------|--------------------------|
--------------------------|--------------------------|
--------------------------|-----------------------3--|
--3--3--3--3--3--3--3--3--|--3--3--3--3--3--3--3-----|


       PM PM PM PM PM PM    PM PM PM PM PM PM PM PM  
  Q    E  E  E  E  E  E     E  E  E  E  E  E  E  E   
-------------------------|--------------------------|
-------------------------|--------------------------|
-------------------------|--------------------------|
-------------------------|--------------------------|
--L----3--3--3--3--3--3--|--------------------------|
-------------------------|--3--3--3--3--3--3--3--3--|


  PM PM PM PM PM PM PM PM                          
  E  E  E  E  E  E  E  E     Q.       Q.     Q     
--------------------------|-----------------------|
--------------------------|-----------------------|
--------------------------|-----------------------|
--------------------------|------------------5----|
--------------------------|--3------3g6-----------|
--3--3--3--3--3--3--3--3--|-----------------------|


                           PM PM PM PM PM PM PM PM  
  E  Q.       Q    Q       E  E  E  E  E  E  E  E   
------------------------|--------------------------|
------------------------|--------------------------|
-----5------7g8----7----|--------------------------|
--L---------------------|--------------------------|
------------------------|--------------------------|
------------------------|--3--3--3--3--3--3--3--3--|


  PM PM PM PM PM PM PM PM    PM PM PM PM PM PM PM PM  
  E  E  E  E  E  E  E  E     E  E  E  E  E  E  E  E   
--------------------------|--------------------------|
--------------------------|--------------------------|
--------------------------|--------------------------|
--------------------------|--------------------------|
--------------------------|--------------------------|
--3--3--3--3--3--3--3--3--|--3--3--3--3--3--3--3--3--|


  PM PM PM PM PM PM PM PM    PM PM PM PM PM PM PM PM  
  E  E  E  E  E  E  E  E     E  E  E  E  E  E  E  E   
--------------------------|--------------------------|
--------------------------|--------------------------|
--------------------------|--------------------------|
--------------------------|--------------3--3--3--3--|
--------------------------|--1--1--1--1--------------|
--3--3--3--3--3--3--3--3--|--------------------------|


  PM PM PM PM PM PM PM PM                                             
  E  E  E  E  E  E  E  E     W                   Q    E  E  H         
--------------------------|-------------------|----------------------|
--------------------------|-------------------|--6----5--7--L--------|
--3--3--3--3--3--3--3--3--|-------------------|--5----5--7--L--------|
--------------------------|-------------------|--7----7--7--L--------|
--------------------------|--1----------------|----------------------|
--------------------------|-------------------|----------------------|


                                             PM PM PM PM          PM  
  Q    H.              E  E  H.              E  E  E  E  E  E  E  E   
--------------------|---------------------|--------------------------|
--------------------|---------------------|-----------------3--------|
--------------------|---------------------|-----------------3--------|
-------5------------|--------5------------|--------------------------|
--------------------|---------------------|--------------------------|
--3-----------------|--3--3---------------|--3--3--3--3--3--------3--|


  PM PM PM PM PM PM PM PM    PM PM PM PM PM PM PM PM                      
  E  E  E  E  E  E  E  E     E  E  E  E  E  E  E  E     W                 
--------------------------|--------------------------|-------------------|
--------------------------|--------------------------|--4----------------|
--------------------------|--------------------------|--5----------------|
--------------------------|--------------------------|--5----------------|
--------------------------|--3--3--3--3--3--3--3--3--|-------------------|
--3--3--3--3--3--3--3--3--|--------------------------|-------------------|


  PM PM PM PM          PM    PM PM PM PM PM PM PM PM  
  E  E  E  E  E  E  E  E     E  E  E  E  E  E  E  E   
--------------------------|--------------------------|
-----------------3--------|--------------------------|
-----------------3--------|--------------------------|
--------------------------|--------------------------|
--------------------------|--------------------------|
--3--3--3--3--3--------3--|--3--3--3--3--3--3--3--3--|


    Q    H.              W                   E  E  E  E  E  E  E  E   
----------------------|-------------------|--------------------------|
----------------------|-------------------|--------------------------|
---------7------------|--L----------------|--------------------------|
----------------------|-------------------|--------------------------|
--3g5-----------------|-------------------|--0--0--0--0--0--0--0--0--|
----------------------|-------------------|--------------------------|


  W                   Q    H.              W                 
-------------------|--------------------|-------------------|
--1----------------|--------------------|-------------------|
--2----------------|-------5------------|--L----------------|
--2----------------|--------------------|-------------------|
-------------------|--3-----------------|-------------------|
-------------------|--------------------|-------------------|


                                             PM PM PM PM PM PM PM PM  
  Q    H.                W                   E  E  E  E  E  E  E  E   
--------------------|---------------------|--------------------------|
--------------------|---------------------|--------------------------|
-------5------------|--5g7----------------|--------------------------|
--------------------|---------------------|--------------------------|
--3-----------------|--3g5----------------|--0--0--0--0--0--0--0--0--|
--------------------|---------------------|--------------------------|


  W                   E  E  E  E  E  E  E  E     W                 
-------------------|--------------------------|-------------------|
-------------------|--------8--------8-----8--|--L----------------|
--2----------------|--------7--------7-----9--|--L----------------|
-------------------|--------9--------9-----9--|--L----------------|
-------------------|--------7--------7-----7--|--L----------------|
-------------------|--0--0-----0--0-----------|-------------------|


  Q    E  E  H           W                   Q.     Q.     Q     
----------------------|-------------------|---------------------|
----------------------|-------------------|---------------------|
----------------------|-------------------|---------------------|
----------3--L--------|--L----------------|--3------2-----------|
----------------------|-------------------|----------------3----|
--1----1--------------|-------------------|---------------------|


  W                   W                   H        H         
-------------------|-------------------|--------------------|
-------------------|-------------------|--------------------|
-------------------|-------------------|--7--------5--------|
--0----------------|--L----------------|--7--------5--------|
-------------------|-------------------|--------------------|
-------------------|-------------------|--------------------|


                      PM PM PM PM PM PM PM PM    PM PM PM PM PM PM PM PM  
  W                   E  E  E  E  E  E  E  E     E  E  E  E  E  E  E  E   
-------------------|--------------------------|--------------------------|
-------------------|--------------------------|--------------------------|
--7----------------|--------------------------|--------------------------|
--7----------------|--------------------------|--------------------------|
-------------------|--------------------------|--------------------------|
-------------------|--3--3--3--3--3--3--3--3--|--3--3--3--3--3--3--3--3--|


  PM PM PM PM PM PM PM            PM PM PM PM PM PM  
  E  E  E  E  E  E  E  E     Q    E  E  E  E  E  E   
--------------------------|-------------------------|
--------------------------|-------------------------|
--------------------------|-------------------------|
--------------------------|-------------------------|
-----------------------3--|--L----3--3--3--3--3--3--|
--3--3--3--3--3--3--3-----|-------------------------|


  PM PM PM PM PM PM PM PM    PM PM PM PM PM PM PM PM  
  E  E  E  E  E  E  E  E     E  E  E  E  E  E  E  E   
--------------------------|--------------------------|
--------------------------|--------------------------|
--------------------------|--------------------------|
--------------------------|--------------------------|
--------------------------|--------------------------|
--3--3--3--3--3--3--3--3--|--3--3--3--3--3--3--3--3--|


  Q.       Q.     Q       E  Q.       Q    Q     
-----------------------|------------------------|
-----------------------|------------------------|
-----------------------|-----5------7g8----7----|
------------------5----|--L---------------------|
--3------3g6-----------|------------------------|
-----------------------|------------------------|


  PM PM PM PM PM PM PM PM    PM PM PM PM PM PM PM PM  
  E  E  E  E  E  E  E  E     E  E  E  E  E  E  E  E   
--------------------------|--------------------------|
--------------------------|--------------------------|
--------------------------|--------------------------|
--------------------------|--------------------------|
--------------------------|--------------------------|
--3--3--3--3--3--3--3--3--|--3--3--3--3--3--3--3--3--|


  PM PM PM PM PM PM PM            PM PM PM PM PM PM  
  E  E  E  E  E  E  E  E     Q    E  E  E  E  E  E   
--------------------------|-------------------------|
--------------------------|-------------------------|
--------------------------|-------------------------|
--------------------------|-------------------------|
-----------------------3--|--L----3--3--3--3--3--3--|
--3--3--3--3--3--3--3-----|-------------------------|


  PM PM PM PM PM PM PM PM    PM PM PM PM PM PM PM PM  
  E  E  E  E  E  E  E  E     E  E  E  E  E  E  E  E   
--------------------------|--------------------------|
--------------------------|--------------------------|
--------------------------|--------------------------|
--------------------------|--------------------------|
--------------------------|--------------------------|
--3--3--3--3--3--3--3--3--|--3--3--3--3--3--3--3--3--|


                                                   PM   PM PM PM PM PM PM  
  Q.       Q.     Q       E  Q.       Q    Q       Q    E  E  E  E  E  E   
-----------------------|------------------------|-------------------------|
-----------------------|------------------------|----------------3--2-----|
-----------------------|-----5------7g8----7----|-------2--3--5--------5--|
------------------5----|--L---------------------|--5----------------------|
--3------3g6-----------|------------------------|-------------------------|
-----------------------|------------------------|-------------------------|


  PM PM PM PM PM PM PM PM PM                               
  |--3--|                                                  
  E  E  E  E  E  E  E  E  E     E  E  E  E  E  E  E   S S  
-----------------------------|--3--5--6--5--3-------------|
--2--3--2--------------------|-----------------6--4p--3---|
-----------5--3--2-----2--3--|--------------------------5-|
--------------------5--------|----------------------------|
-----------------------------|----------------------------|
-----------------------------|----------------------------|


  S  S  S  S E  E  Q     Q       Q    E  E  E  S  S E   E   
------------------------------|----------------------------|
--4h-6p-4p-3-------------x----|----------------------------|
-------------5--4--5~----x----|-------2-----2--5p-2--------|
-------------------------x----|--4-------4----------4S--7--|
------------------------------|----------------------------|
------------------------------|----------------------------|


  E  S  S E    E  E   S  S  Q           E   E   E   E   E   E   E   E   
---------------------------------|-----------------10------------------|
---------------------------------|-------------10------13--11--10------|
--5--7p-5---------7--11p-7-------|---------10----------------------12--|
----------7S--10-----------10----|--10g12------------------------------|
---------------------------------|-------------------------------------|
---------------------------------|-------------------------------------|


                                          PM   PM PM PM PM PM PM  
   E   S   S  E   E   E   E   E   S  S    Q    E  E  E  E  E  E   
---------------------------------------|-------------------------|
--10--11p-10---------------------------|----------------3--2-----|
-------------12--11--10----------------|-------2--3--5--------5--|
-------------------------12--11--10p-8-|--5----------------------|
---------------------------------------|-------------------------|
---------------------------------------|-------------------------|


  PM PM PM PM PM PM PM PM PM                               
  |--3--|                                                  
  E  E  E  E  E  E  E  E  E     E  E  E  E  E  E  E   S S  
-----------------------------|--3--5--6--5--3-------------|
--2--3--2--------------------|-----------------6--4p--3---|
-----------5--3--2-----2--3--|--------------------------5-|
--------------------5--------|----------------------------|
-----------------------------|----------------------------|
-----------------------------|----------------------------|


  S  S  S  S E  E  Q     Q       Q    E  E  E  S  S E   E   
------------------------------|----------------------------|
--4h-6p-4p-3-------------x----|----------------------------|
-------------5--4--5~----x----|-------2-----2--5p-2--------|
-------------------------x----|--4-------4----------4S--7--|
------------------------------|----------------------------|
------------------------------|----------------------------|


  E  S  S E    E  E   S  S  Q          Q     E   E   E   E   E   E   
---------------------------------|--8g10----------------------------|
---------------------------------|----------13--11--10--------------|
--5--7p-5---------7--11p-7-------|----------------------12--11--10--|
----------7S--10-----------10----|----------------------------------|
---------------------------------|----------------------------------|
---------------------------------|----------------------------------|


                                                       W                 
   E   E   E  E   E   E  E   E     W                   W                 
--------------------------------|--3----------------|--L----------------|
--------------------------------|-------------------|-------------------|
--------------------------------|-------------------|-------------------|
--12--11--10--8------10--8------|-------------------|-------------------|
-----------------10---------10--|-------------------|-------------------|
--------------------------------|-------------------|-------------------|


  E  E  E  E  E  E  E  S  S    S  S S  S S  S E  H          
--3--1--3--1----------------|------------------------------|
--------------4--2--4--3p-1-|--1p-0------------------------|
----------------------------|-------3S-5-5p-3----3~--------|
----------------------------|-----------------5------------|
----------------------------|------------------------------|
----------------------------|------------------------------|


                                          |---3---|  |---3---|   
  Q    E  E  E  E  E  E     S  S E  E  E  E   E   E  E   E   E   
----------0--------------|--------------------------------------|
-------------------------|--------------------------------------|
--L----0-----4-----3-----|--5p-3----3--0--5p--3p--0--5p--3p--0--|
----------------5-----5--|-------5------------------------------|
-------------------------|--------------------------------------|
-------------------------|--------------------------------------|


  |---3--|                 |---3--|   
  E   E  E  S  S S S E  E  E   E  E   
-------------------------------------|
-------------------------------------|
--3p--0-----3p-0---5-3--0--3p--0-----|
---------5-------5----------------5--|
-------------------------------------|
-------------------------------------|


                                          W   W                           
  |---3--|  |---3--|  |---3--|                       |---3---|            
  E   E  E  E  E   E  E   E  E  E   E     E.  E.  E  E   E   E   E  S  S  
---------------------------------------|----------0----------------------|
---------------------------------------|-------------4h--5p--4p--0-------|
--3p--0-----5--3p--0--3p--0-----3h--4--|--5---4---------------------4h-5-|
---------5-------------------5---------|---------------------------------|
---------------------------------------|---------------------------------|
---------------------------------------|---------------------------------|


                 |--3--|                               |---3--|   
  E  S  S  E  E  E  E  E  S S S S    E  E  E.  S E  E  E   E  E   
----------------------------------|------------------------------|
----------------------------------|------------------------------|
-----4h-5p-4--2-------------------|------------------------------|
-----------------5--2--4--5-4-2---|--------------------2h--4-----|
--------------------------------5-|--2-----------2--4---------5--|
----------------------------------|-----4--5---5-----------------|


  |--3--|  |---3--|             |--3--|     |--3--|  |---3---|             
  E  E  E  E   E  E  S  S  S  S E  E  E     E  E  E  E   E   E  H          
-----------------------------------------|--------------------------------|
-----------------------------------------|----------------------5~--------|
--------------------------------------2--|--------------------------------|
--2--------2h--5--2--4h-5p-4p-2-4--5-----|-----2--2-----------------------|
-----4--5--------------------------------|--5--------5S--6S--7------------|
-----------------------------------------|--------------------------------|


  E  E  S  S  S S S  S  S S E  S S  
-----------------------------------|
-----------------------------------|
--------0h-2p-0---2h-3p-1-3-L--2-4-|
--5--4----------4------------------|
-----------------------------------|
-----------------------------------|


                          |--3--|           
  S  S  E  S  S  E  S  S  S  S  S S  S S S  
-------------------------------------------|
-----------------------------------------3-|
--2h-4h-5--2h-4h-5--2h-4h-5p-4p-2-4S-5-5---|
-------------------------------------------|
-------------------------------------------|
-------------------------------------------|


                   PM                                             
  S S E  S  S S  S S  E.   Q       E   E  E   E  E   E  S  S  E   
--------------------------------|--8---------12--8------8p-7-----|
--3-6-3--5h-6-5p-3-3--5~---L----|-----10------------10-------10--|
--------------------------------|---------9----------------------|
--------------------------------|--------------------------------|
--------------------------------|--------------------------------|
--------------------------------|--------------------------------|


                 |----3----|   |---3---|   
  E   E  E   E   E    E    E   E   E   E   
-----12--8------13p--12p--10--10p--8S--7--|
------------10----------------------------|
--9---------------------------------------|
------------------------------------------|
------------------------------------------|
------------------------------------------|


  E   E  E   E  E   E  S  S  E   
--8---------12--8------8p-7-----|
-----10------------10-------10--|
---------9----------------------|
--------------------------------|
--------------------------------|
--------------------------------|


                 |----3----|   |---3---|                                   
  E   E  E   E   E    E    E   E   E   E     E   E   E  E   E   E  E   E   
-----12--8------13p--12p--10--10p--8S--7--|--8----------8----------8------|
------------10----------------------------|-----10---------10---------10--|
--9---------------------------------------|---------10---------10---------|
------------------------------------------|-------------------------------|
------------------------------------------|-------------------------------|
------------------------------------------|-------------------------------|


   E  E   E   E  E   E  E   E     E  E  E  E  E  E   E  E   
------8----------8p--0--8p--0--|--7------------------------|
---------10--------------------|-----9-----9--------10-----|
--10---------10----------------|--------9-----9---------9--|
-------------------------------|-----------------9---------|
-------------------------------|---------------------------|
-------------------------------|---------------------------|


  E  E  E  E   E   E   E  E     E   E  E   E  E   E  S  S  E   
-----------------------------|--8---------12--8------8p-7-----|
-----9--------10p--9--10-----|-----10------------10-------10--|
--------9-----------------9--|---------9----------------------|
--9--------9-----------------|--------------------------------|
-----------------------------|--------------------------------|
-----------------------------|--------------------------------|


                 |----3----|   |---3---|   
  E   E  E   E   E    E    E   E   E   E   
-----12--8------13p--12p--10--10p--8S--7--|
------------10----------------------------|
--9---------------------------------------|
------------------------------------------|
------------------------------------------|
------------------------------------------|


  E   E  E   E  E   E  S  S  E   
--8---------12--8------8p-7-----|
-----10------------10-------10--|
---------9----------------------|
--------------------------------|
--------------------------------|
--------------------------------|


                 |----3----|   |---3---|                                   
  E   E  E   E   E    E    E   E   E   E     E   E   E  E   E   E  E   E   
-----12--8------13p--12p--10--10p--8S--7--|--8----------8----------8------|
------------10----------------------------|-----10---------10---------10--|
--9---------------------------------------|---------10---------10---------|
------------------------------------------|-------------------------------|
------------------------------------------|-------------------------------|
------------------------------------------|-------------------------------|


   E  E   E   E  E   E  E   E     E  E  E  E  E  E   E  E   
------8----------8p--0--8p--0--|--7------------------------|
---------10--------------------|-----9-----9--------10-----|
--10---------10----------------|--------9-----9---------9--|
-------------------------------|-----------------9---------|
-------------------------------|---------------------------|
-------------------------------|---------------------------|


  E  E  E  E   E   E   E   E     Q.     E  H           W                 
------------------------------|---------------------|-------------------|
-----9--------10p--9--10p--9--|---------------------|-------------------|
--------9---------------------|---------------------|-------------------|
--9--------9------------------|---------------------|-------------------|
------------------------------|--5------5--L--------|--L----------------|
------------------------------|---------------------|-------------------|


  W                   W                   Q    H.             
-------------------|-------------------|---------------------|
-------------------|-------------------|---------------------|
-------------------|-------------------|-------2~------------|
-------------------|-------------------|---------------------|
-------------------|-------------------|--0------------------|
-------------------|-------------------|---------------------|


  W                   Q.     E    H           Q.     E  H         
-------------------|-----------------------|---------------------|
-------------------|-----------------------|---------------------|
--L----------------|--4------4br--L--------|---------2--L--------|
-------------------|-----------------------|---------------------|
-------------------|-----------------------|--0------------------|
-------------------|-----------------------|---------------------|


  Q    H.               W                   W                 
---------------------|-------------------|-------------------|
---------------------|-------------------|-------------------|
---------------------|-------------------|-------------------|
-------3~------------|--L----------------|--L----------------|
---------------------|-------------------|-------------------|
--1------------------|-------------------|-------------------|


  Q    H.              Q    H.              W                 
--------------------|--------------------|-------------------|
--------------------|--------------------|-------------------|
--------------------|--------------------|-------------------|
-------3------------|--0----0------------|--L----------------|
--------------------|--------------------|-------------------|
--1-----------------|--------------------|-------------------|


                                          PM PM PM PM PM PM PM PM  
  W                   W                   E  E  E  E  E  E  E  E   
-------------------|-------------------|--------------------------|
-------------------|-------------------|--------------------------|
-------------------|-------------------|--------------------------|
-------------------|-------------------|--------------------------|
-------------------|-------------------|--------------------------|
-------------------|-------------------|--3--3--3--3--3--3--3--3--|


  PM PM PM PM PM PM PM PM    PM PM PM PM PM PM PM     
  E  E  E  E  E  E  E  E     E  E  E  E  E  E  E  E   
--------------------------|--------------------------|
--------------------------|--------------------------|
--------------------------|--------------------------|
--------------------------|--------------------------|
--------------------------|-----------------------3--|
--3--3--3--3--3--3--3--3--|--3--3--3--3--3--3--3-----|


       PM PM PM PM PM PM    PM PM PM PM PM PM PM PM  
  Q    E  E  E  E  E  E     E  E  E  E  E  E  E  E   
-------------------------|--------------------------|
-------------------------|--------------------------|
-------------------------|--------------------------|
-------------------------|--------------------------|
--L----3--3--3--3--3--3--|--------------------------|
-------------------------|--3--3--3--3--3--3--3--3--|


  PM PM PM PM PM PM PM PM                          
  E  E  E  E  E  E  E  E     Q.       Q.     Q     
--------------------------|-----------------------|
--------------------------|-----------------------|
--------------------------|-----------------------|
--------------------------|------------------5----|
--------------------------|--3------3g6-----------|
--3--3--3--3--3--3--3--3--|-----------------------|


                           PM PM PM PM PM PM PM PM  
  E  Q.       Q    Q       E  E  E  E  E  E  E  E   
------------------------|--------------------------|
------------------------|--------------------------|
-----5------7g8----7----|--------------------------|
--L---------------------|--------------------------|
------------------------|--------------------------|
------------------------|--3--3--3--3--3--3--3--3--|


  PM PM PM PM PM PM PM PM    PM PM PM PM PM PM PM PM  
  E  E  E  E  E  E  E  E     E  E  E  E  E  E  E  E   
--------------------------|--------------------------|
--------------------------|--------------------------|
--------------------------|--------------------------|
--------------------------|--------------------------|
--------------------------|--------------------------|
--3--3--3--3--3--3--3--3--|--3--3--3--3--3--3--3--3--|


  PM PM PM PM PM PM PM PM    PM PM PM PM PM PM PM PM  
  E  E  E  E  E  E  E  E     E  E  E  E  E  E  E  E   
--------------------------|--------------------------|
--------------------------|--------------------------|
--------------------------|--------------------------|
--------------------------|--------------3--3--3--3--|
--------------------------|--1--1--1--1--------------|
--3--3--3--3--3--3--3--3--|--------------------------|


  PM PM PM PM PM PM PM PM                                             
  E  E  E  E  E  E  E  E     W                   Q    E  E  H         
--------------------------|-------------------|----------------------|
--------------------------|-------------------|--6----5--7--L--------|
--3--3--3--3--3--3--3--3--|-------------------|--5----5--7--L--------|
--------------------------|-------------------|--7----7--7--L--------|
--------------------------|--1----------------|----------------------|
--------------------------|-------------------|----------------------|


                                             PM PM PM PM          PM  
  Q    H.              E  E  H.              E  E  E  E  E  E  E  E   
--------------------|---------------------|--------------------------|
--------------------|---------------------|-----------------3--------|
--------------------|---------------------|-----------------3--------|
-------5------------|--------5------------|--------------------------|
--------------------|---------------------|--------------------------|
--3-----------------|--3--3---------------|--3--3--3--3--3--------3--|


  PM PM PM PM PM PM PM PM    PM PM PM PM PM PM PM PM                      
  E  E  E  E  E  E  E  E     E  E  E  E  E  E  E  E     W                 
--------------------------|--------------------------|-------------------|
--------------------------|--------------------------|--4----------------|
--------------------------|--------------------------|--5----------------|
--------------------------|--------------------------|--5----------------|
--------------------------|--3--3--3--3--3--3--3--3--|-------------------|
--3--3--3--3--3--3--3--3--|--------------------------|-------------------|


  PM PM PM PM          PM    PM PM PM PM PM PM PM PM  
  E  E  E  E  E  E  E  E     E  E  E  E  E  E  E  E   
--------------------------|--------------------------|
-----------------3--------|--------------------------|
-----------------3--------|--------------------------|
--------------------------|--------------------------|
--------------------------|--------------------------|
--3--3--3--3--3--------3--|--3--3--3--3--3--3--3--3--|


    Q    H.              W                   E  E  E  E  E  E  E  E   
----------------------|-------------------|--------------------------|
----------------------|-------------------|--------------------------|
---------7------------|--L----------------|--------------------------|
----------------------|-------------------|--------------------------|
--3g5-----------------|-------------------|--0--0--0--0--0--0--0--0--|
----------------------|-------------------|--------------------------|


  W                   Q    H.              W                 
-------------------|--------------------|-------------------|
--1----------------|--------------------|-------------------|
--2----------------|-------5------------|--L----------------|
--2----------------|--------------------|-------------------|
-------------------|--3-----------------|-------------------|
-------------------|--------------------|-------------------|


                                             PM PM PM PM PM PM PM PM  
  Q    H.                W                   E  E  E  E  E  E  E  E   
--------------------|---------------------|--------------------------|
--------------------|---------------------|--------------------------|
-------5------------|--5g7----------------|--------------------------|
--------------------|---------------------|--------------------------|
--3-----------------|--3g5----------------|--0--0--0--0--0--0--0--0--|
--------------------|---------------------|--------------------------|


  W                   E  E  E  E  E  E  E  E     W                 
-------------------|--------------------------|-------------------|
-------------------|--------8--------8-----8--|--L----------------|
--2----------------|--------7--------7-----9--|--L----------------|
-------------------|--------9--------9-----9--|--L----------------|
-------------------|--------7--------7-----7--|--L----------------|
-------------------|--0--0-----0--0-----------|-------------------|


  Q    E  E  H           W                   Q.     Q.     Q     
----------------------|-------------------|---------------------|
----------------------|-------------------|---------------------|
----------------------|-------------------|---------------------|
----------3--L--------|--L----------------|--3------2-----------|
----------------------|-------------------|----------------3----|
--1----1--------------|-------------------|---------------------|


   W                   W                 
--10----------------|--L----------------|
--------------------|-------------------|
--------------------|-------------------|
---0----------------|--L----------------|
--------------------|-------------------|
--------------------|-------------------|


   |----3----|   |---3---|                 |---3---|   
   E    E    E   E   E   E    S   S  S  S  E   E   E   
--12h--13p--12------10--------------------------------|
----------------13------13p--12p-10----10-------------|
------------------------------------13----13--12--10--|
------------------------------------------------------|
------------------------------------------------------|
------------------------------------------------------|


                                                      PM          
   |----3---|   |-3-|     |-3-|                                   
   E   E    E   E   Q     E   Q    Q       Q    E  E  E  E  Q     
----------------------------------------|------------------------|
----------------------------------------|------------------------|
------12p--10------10--------10----5----|------------------------|
--12-----------12--------12-------------|-------5--5--5--3-------|
----------------------------------------|------------------------|
----------------------------------------|--3----------------3----|


  E  E  E  E  Q    Q       Q    E  E  E  S  S S  S S  S  
------------------------|-------------------------------|
------------------------|-------------------------------|
------------------------|-------------------------------|
--5--5--5--3-------5----|-------5--5--5--3h-5-3h-5-3p-0-|
------------------------|-------------------------------|
--------------3---------|--3----------------------------|


  W                   S  E.  E  E  E  E  Q     
-------------------|--------------------------|
-------------------|--------------------------|
-------------------|--------------------------|
-------------------|---------5--5--5--3-------|
--3----------------|--------------------------|
-------------------|--1S-3---------------3----|


                      |---3--|                            
  E  E  E  S  S  Q    E   E  E     Q.     S  S Q    Q     
--------------------------------|------------------------|
--------------------------------|------------------------|
--------------------------------|------------------------|
--5--3-----5p-3p-0----5p--3--5--|-------------------5----|
--------------------------------|--3------3S-6-L---------|
--------------------------------|------------------------|


  E  Q.     S  E.  Q       Q    H.             
------------------------|---------------------|
------------------------|-------6b------------|
-----5------7S-8---7----|---------------------|
--L---------------------|---------------------|
------------------------|---------------------|
------------------------|---------------------|


           |-----3-----|                           |---3---|           
  H        Q    Q      Q         E    E    E  E    E  E    E  E    E   
------------------------------|------------3-------3-------3-------3--|
--L--------L----6pb----6pb----|--6pb--6pb-----6pb-----6pb-----6pb-----|
------------------------------|---------------------------------------|
------------------------------|---------------------------------------|
------------------------------|---------------------------------------|
------------------------------|---------------------------------------|


  E  E    E    E  E    E    E  E       E   E  E  E   E  E  E   E   
--3------------3------------3-------|------3--3------3--3------3--|
-----6pb--6pb-----6pb--6pb-----6pb--|--6b--------6b--------6b-----|
------------------------------------|-----------------------------|
------------------------------------|-----------------------------|
------------------------------------|-----------------------------|
------------------------------------|-----------------------------|


  E  E   E  E  E   E  E  E     E  E   E    E  E   E    E  E    
--3------3--3------3--3--3--|--3-----------3-----------3------|
-----6b--------6b-----------|-----6b--6pb-----6b--6pb-----6b--|
----------------------------|---------------------------------|
----------------------------|---------------------------------|
----------------------------|---------------------------------|
----------------------------|---------------------------------|


  E    E  E   E    E  E   E    E     E   E    E  E   E    E  E   E     
-------3-----------3-----------3--|-----------3-----------3-----------|
--6pb-----6b--6pb-----6b--6pb-----|--6b--6pb-----6b--6pb-----6b--6pb--|
----------------------------------|-----------------------------------|
----------------------------------|-----------------------------------|
----------------------------------|-----------------------------------|
----------------------------------|-----------------------------------|


  E  E   E    E  E   E    E  E      E    E  E   E    E  E   E    E   
--3-----------3-----------3------|-------3-----------3-----------3--|
-----6b--6pb-----6b--6pb-----6b--|--6pb-----6b--6pb-----6b--6pb-----|
---------------------------------|----------------------------------|
---------------------------------|----------------------------------|
---------------------------------|----------------------------------|
---------------------------------|----------------------------------|


  E   E    E  E   E    E  E   E       E  E   E    E  E   E    E  E    
-----------3-----------3-----------|--3-----------3-----------3------|
--6b--6pb-----6b--6pb-----6b--6pb--|-----6b--6pb-----6b--6pb-----6b--|
-----------------------------------|---------------------------------|
-----------------------------------|---------------------------------|
-----------------------------------|---------------------------------|
-----------------------------------|---------------------------------|


  E    E  E   E    E  E   E    E     E   E    E  E   E    E  E   E     
-------3-----------3-----------3--|-----------3-----------3-----------|
--6pb-----6b--6pb-----6b--6pb-----|--6b--6pb-----6b--6pb-----6b--6pb--|
----------------------------------|-----------------------------------|
----------------------------------|-----------------------------------|
----------------------------------|-----------------------------------|
----------------------------------|-----------------------------------|


  E  E   E    E  E   E    E  S S     Q    E  E  E  E  E  E   
--3-----------3-----------3--3----|-------3-----3--------3--|
-----6b--6pb-----6b--6pb-------6b-|--L-------6-----6--3-----|
----------------------------------|-------------------------|
----------------------------------|-------------------------|
----------------------------------|-------------------------|
----------------------------------|-------------------------|


                              |---3--|  |---3--|  |---3--|  |---3--|   
  E   E  Q.      E  E   E     E   E  E  E   E  E  E   E  E  E   E  E   
------3----------3------3--|--6p--3-----6p--3-----6p--3-----6p--3-----|
---------6b---------6b-----|---------0---------0---------0---------6--|
--5b-----------------------|------------------------------------------|
---------------------------|------------------------------------------|
---------------------------|------------------------------------------|
---------------------------|------------------------------------------|


  E  E   H.              E  E  E  E  S  S E  E  S  S  
--3-------------------|--6-----6---------------------|
-----6b--L------------|-----8-----8--8p-6----6--8p-6-|
----------------------|-------------------7----------|
----------------------|------------------------------|
----------------------|------------------------------|
----------------------|------------------------------|


                   W                                            
                                   |---3--|                     
  E  E  S  S E  E  E  Q       Q    E   E  E   E   E   E   S  S  
---------------------------|-----------------------------------|
-----6--8p-6----6--8--L----|--L----6S--7--8--10--11--10--10p-8-|
--7----------7-------------|-----------------------------------|
---------------------------|-----------------------------------|
---------------------------|-----------------------------------|
---------------------------|-----------------------------------|


                                                W             
                    |---3--|                                  
   E  S  S  E   E   E  E   E   E   E     E   E  H.            
--------------------------------------|----------------------|
--------------------------------------|----------------------|
--10--7----10p--8------7h--8p--7------|----------------------|
--------10---------10-------------10--|--8p--7--5------------|
--------------------------------------|----------------------|
--------------------------------------|----------------------|


                                                                 W   
                                                   |---3--|          
  E  E  E  S  S E  E  S  S E     S  S  E  S  S  E  E   E  E   E  E   
------------------------------|-------------------------------------|
------------------------------|-------------------------------------|
--3-----3--5p-3----3--5p-3----|--5p-3p-0--5p-3p-0--5p--3--5p--3-----|
-----5----------5----------5--|----------------------------------5--|
------------------------------|-------------------------------------|
------------------------------|-------------------------------------|


                                    W                         
  W                   Q.     Q.     Q       W                 
-------------------|---------------------|-------------------|
-------------------|--8------6------8----|--L----------------|
-------------------|---------------------|-------------------|
--L----------------|--5------3------5----|--L----------------|
-------------------|---------------------|-------------------|
-------------------|---------------------|-------------------|


  Q.     Q.     Q       H.           Q       Q    Q    S S E  E  E   
---------------------|--------------------|-------------------------|
--8------6------8----|--L-----------------|--3----------------------|
--5------3------5----|--L-----------------|-------5----L-3----3-----|
--5------3------5----|--L-----------------|----------------5-----5--|
---------------------|--------------------|-------------------------|
---------------------|--------------------|-------------------------|


  S  S E  E  E  S  S E  E  S  S    S  S E  E  E  S  S E  E  E   
--------------------------------|------------------------------|
--------------------------------|------------------------------|
--------------------------------|------------------------------|
--5p-3----3--5--5p-3----3--3p-0-|--5p-3----3--5--5p-3----3--5--|
-------5-------------5----------|-------5-------------5--------|
--------------------------------|------------------------------|


  S  S E  E  E  S  S E  E  E     S  S E  E  E  S  S E  E  E   
------------------------------|------------------------------|
------------------------------|------------------------------|
------------------------------|------------------------------|
--5p-3----3--5--5p-3----3--5--|--5p-3----3--5--5p-3----3--5--|
-------5-------------5--------|-------5-------------5--------|
------------------------------|------------------------------|


                   W                                            
                                      |---3--|                  
  S  S E  E  E  S  E.  Q       E   E  E   E  E  S  S S S E  E   
----------------------------|----------------------------------|
----------------------------|--------------------------3-4--6--|
----------------------------|--2S--3--5p--3--5--6p-5-5---------|
--5p-3----3--5--3h-5---L----|----------------------------------|
-------5--------------------|----------------------------------|
----------------------------|----------------------------------|


  |--3--|                                 |---3--|  |---3--|              
  E  E  E  S  S  S S S  S  S S S S S S    E  E   E  E  E   E  Q    E  E   
---------------------------------------|---------------------------------|
--4--------3h-4p-3---3h-4p-3---3-------|----------------------6-------6--|
-----5--5----------5---------5---5-3-3-|--3--5p--3--3--5h--7-------7-----|
---------------------------------------|---------------------------------|
---------------------------------------|---------------------------------|
---------------------------------------|---------------------------------|


                                         |---3---|   |---3---|   
  H.            E   E      Q     E   E   E   E   E   E   E   E   
------------------------|-------10------------------------------|
--6~---------------13b--|--L--------13--11--11------11--11------|
----------------0-------|-----------------------12----------12--|
------------------------|---------------------------------------|
------------------------|---------------------------------------|
------------------------|---------------------------------------|


   E    E   E   E   Q     E   E      Q     E   Q      E   Q      
-----------------------------13---|--L----13---------13---------|
-----------------------------13b--|--L--------13b--------13b----|
--10h--12--10------10~------------|-----------------------------|
---------------12-----------------|-----------------------------|
----------------------------------|-----------------------------|
----------------------------------|-----------------------------|


   E   Q      E   Q      E   E      E   E   Q      E   Q      E   
--13---------13---------13-------|-----13---------13---------13--|
------13b--------13b--------13b--|--L------13b--------13b--------|
---------------------------------|-------------------------------|
---------------------------------|-------------------------------|
---------------------------------|-------------------------------|
---------------------------------|-------------------------------|


   Q      E   Q      Q.        Q     E   Q      E   Q      
---------13---------13------|--L----13---------13---------|
--13b--------13b------------|-----------13b--------13b----|
----------------------------|-----------------------------|
----------------------------|-----------------------------|
----------------------------|-----------------------------|
----------------------------|-----------------------------|


   E   Q      E   Q      E   E      E   E   Q      E   Q      E   
--13---------13---------13-------|-----13---------13---------13--|
------13b--------13b--------13b--|--L------13b--------13b--------|
---------------------------------|-------------------------------|
---------------------------------|-------------------------------|
---------------------------------|-------------------------------|
---------------------------------|-------------------------------|


   E    E   E     E   E   E   E   E    
-------13--------13------13------13--||
--13b------13pb------13------13------||
-------------------------------------||
-------------------------------------||
-------------------------------------||
-------------------------------------||




Duration Legend
---------------
W - whole
H - half
Q - quarter
E - 8th
S - 16th
T - 32nd
X - 64th
. - note dotted
|-n-|  - n-tuplets


Tablature Legend
----------------
L - tied note
x - dead note
g - grace note
(n) - ghost note
> - accentuded note
NH - natural harmonic
AH - artificial harmonic
TH - tapped harmonic
SH - semi harmonic
PH - pitch harmonic
h - hammer on
p - pull off
b - bend
br - bendRelease
pb - preBend
pbr - preBendRelease
brb - bendReleaseBend
\n/ - tremolo bar dip
\n - tremolo bar dive
-/n - tremolo bar Release up
/n\ - tremolo bar inverted dip
/n - tremolo bar return
-\n - tremolo bar Release down
S - shift slide
s - legato slide
/ -  slide into from below or out of upwards
\ -  slide into from above or out of downwards
~ - vibrato
W - wide vibrato
tr - trill
TP - tremolo picking
T - tapping
S - slap
P - pop
< - fade in
^ - brush up
v - brush down
comments
We did not receive enough feedback on this tab! Please rate:
print report bad tab
1 2 3 4 5
I want to post or [tab]
guest
You may want to rate the tab now too:
select rating
Please do not post tabs as comments. Select "correction" instead!