Oops, an error
Loading. Please wait.

Anthem Bass Tab

ver1
ver1

Whole song

Interactive

More versions @911Tabs.com
977 views 3 this week
no commentswrite comment
1 2 3 4 5
excellent!
x 1
Autoscroll
+/-
esc
set tempo
stop
WARNING: You are trying to view
                                    content from Ultimate-Guitar.com
                                    in an unauthorized application,
                                    which is prohibited.

                                    Please use an official Ultimate
                                    Guitar Tabs application for iPhone,
                                    iPad or Android to access legitimate
                                    chords, guitar, bass, and drum tabs
                                    from Ultimate-Guitar.com database.

                                    Type "ultimate guitar tabs" in Apple
                                    App Store's or Android Market's
                                    search to find the application.
Band: Deep Purple
Song: Anthem

     W                   W                   W                 
G||-------------------|-------------------|-------------------|
D||-------------------|-------------------|-------------------|
A||-------------------|-------------------|-------------------|
E||-------------------|-------------------|-------------------|


  W                   W                   W                   W                 
-------------------|-------------------|-------------------|-------------------|
-------------------|-------------------|-------------------|-------------------|
-------------------|-------------------|-------------------|-------------------|
-------------------|-------------------|-------------------|-------------------|


  W                   W                   W                   W                 
-------------------|-------------------|-------------------|-------------------|
-------------------|-------------------|-------------------|-------------------|
-------------------|-------------------|-------------------|-------------------|
-------------------|-------------------|-------------------|-------------------|


  Q.     E  Q.     E     Q.     E  Q.     E     Q.     E  Q.     E   
--2------2--2------2--|--2------2--1------1--|--2------2--0------0--|
----------------------|----------------------|----------------------|
----------------------|----------------------|----------------------|
----------------------|----------------------|----------------------|


  Q.     E  Q    Q       Q.     E  Q.     E     Q.     E  Q.     E   
----------------------|--2------2--0------0--|----------------------|
--3------3-------2----|----------------------|--3------3--0------0--|
------------2---------|----------------------|----------------------|
----------------------|----------------------|----------------------|


  Q    Q    Q    Q       Q    Q    Q    E  E     Q    E  E  Q.     E   
----------------------|-----------------------|--2-------2--1------1--|
--2----2----2----2----|--2----2----2----2--2--|-----------------------|
----------------------|-----------------------|-----------------------|
----------------------|-----------------------|-----------------------|


  Q.     E  H           Q.     E  Q.     E     Q.     E  S E  E  S E   
---------------------|----------------------|------------0----0----0--|
--4------4--2--------|--0------0------------|--------------0-----0----|
---------------------|------------4------4--|--2------2---------------|
---------------------|----------------------|-------------------------|


  E.  S Q    Q    Q       Q    E  E  Q    E  E     Q    E  E  Q    E  E   
-----------------------|--2-------2-------4-----|-------2----------4-----|
--0---0-0----0----0----|-------2-----2-------2--|--0-------0--2-------2--|
-----------------------|------------------------|------------------------|
-----------------------|------------------------|------------------------|


  Q    E  E  Q    E  E     Q    E  E  Q    E  E     Q.     E  Q.     E   
--2-------2-------4-----|-------2----------4-----|--2------2--2------2--|
-------2-----2-------2--|--0-------0--2-------2--|----------------------|
------------------------|------------------------|----------------------|
------------------------|------------------------|----------------------|


  Q.     E  Q.     E     Q.     E  Q    Q       Q.     E  Q    E  E   
----------------------|----------------------|-----------------------|
------------4------4--|--2------2--0---------|------------2----2-----|
--4------4------------|-----------------4----|--2------2-------------|
----------------------|----------------------|-----------------------|


  Q.     E  Q.     E     Q.     E  Q    Q       Q.     E  Q.     E   
--2------2--2------2--|--2------2------------|--2------2--2------2--|
----------------------|------------0----2----|----------------------|
----------------------|----------------------|----------------------|
----------------------|----------------------|----------------------|


  Q.     E  Q.     E     Q.     E  Q.     E     Q.     E  Q    Q     
--2------2--1------1--|--2------2--0------0--|----------------------|
----------------------|----------------------|--3------3-------2----|
----------------------|----------------------|------------2---------|
----------------------|----------------------|----------------------|


  Q.     E  Q.     E     Q.     E  Q.     E     Q    Q    Q    Q     
--2------2--0------0--|----------------------|----------------------|
----------------------|--3------3--0------0--|--2----2----2----2----|
----------------------|----------------------|----------------------|
----------------------|----------------------|----------------------|


  Q.     E  Q.     E     Q.     E  Q.     E     Q.     E  Q.     E   
--2------2--2------2--|--2------2--1------1--|--2------2--0------0--|
----------------------|----------------------|----------------------|
----------------------|----------------------|----------------------|
----------------------|----------------------|----------------------|


  Q.     E  Q    Q       Q.     E  Q.     E     Q.     E  Q.     E   
----------------------|--2------2--0------0--|----------------------|
--3------3-------2----|----------------------|--3------3--0------0--|
------------2---------|----------------------|----------------------|
----------------------|----------------------|----------------------|


  Q    Q    Q    Q       Q    Q    Q    Q       Q    E  E  Q.     E   
----------------------|----------------------|--2-------2--1------1--|
--2----2----2----2----|--2----2----2----2----|-----------------------|
----------------------|----------------------|-----------------------|
----------------------|----------------------|-----------------------|


  Q.     E  Q.     E     Q.     E  Q.     E     Q.     E  S E  E.  E   
----------------------|----------------------|------------0----0---0--|
--4------4--2------2--|--0------0------------|--------------0---------|
----------------------|------------4------4--|--2------2--------------|
----------------------|----------------------|------------------------|


  E.  S Q    Q    Q       Q    E  E  Q    E  E     Q    E  E  Q    E  E   
-----------------------|--2---------------4-----|-------2----------4-----|
--0---0-0----0----0----|-------2-------------2--|--0-------0--2-------2--|
-----------------------|----------0-------------|------------------------|
-----------------------|-------------0----------|------------------------|


  Q    E  E  Q    E  E     Q    E  E  Q    E  E     Q.     E  Q.     E   
--2-------2-------4-----|-------2----------4-----|--2------2--2------2--|
-------2-----2-------2--|--0-------0--2-------2--|----------------------|
------------------------|------------------------|----------------------|
------------------------|------------------------|----------------------|


  Q.     E  Q.     E     Q.     E  Q    Q       Q.     E  Q    Q     
----------------------|----------------------|----------------------|
------------4------4--|--2------2--0---------|------------2----2----|
--4------4------------|-----------------4----|--2------2------------|
----------------------|----------------------|----------------------|


  Q.     E  Q.     E     Q.     E  Q    Q       Q    H.            
--2------2--2------2--|--2------2------------|--2-----------------|
----------------------|------------0----2----|--------------------|
----------------------|----------------------|--------------------|
----------------------|----------------------|--------------------|


  W                   W                   H.           E  E   
-------------------|-------------------|---------------------|
-------------------|-------------------|------------------2--|
-------------------|-------------------|---------------------|
-------------------|-------------------|---------------------|


  S S S S S S S S E  E  E  E     E  E  E  E  E  E  E  E   
----0----------------0--------|--2--3--1--------1--2--4--|
----------0---0-2-3-----3--2--|-----------2--2-----------|
--0---0-4---0-----------------|--------------------------|
------------------------------|--------------------------|


  S S S S S S S S E  E  E  E     E  E  E  E  E  E  E  E     Q    H.            
----------------0-2--3--2--2--|--------------------------|--2-----------------|
--0---0-2-3-2-3---------------|--3--3--2-----2--------2--|--------------------|
----4-------------------------|-----------2--------2-----|--------------------|
------------------------------|-----------------0--------|--------------------|


  W                   W                   W                   W                 
-------------------|-------------------|-------------------|-------------------|
-------------------|-------------------|-------------------|-------------------|
-------------------|-------------------|-------------------|-------------------|
-------------------|-------------------|-------------------|-------------------|


  W                   W                   W                   W                 
-------------------|-------------------|-------------------|-------------------|
-------------------|-------------------|-------------------|-------------------|
-------------------|-------------------|-------------------|-------------------|
-------------------|-------------------|-------------------|-------------------|


  W                   W                   W                   W                 
-------------------|-------------------|-------------------|-------------------|
-------------------|-------------------|-------------------|-------------------|
-------------------|-------------------|-------------------|-------------------|
-------------------|-------------------|-------------------|-------------------|


  W                   W                   W                   W                 
-------------------|-------------------|-------------------|-------------------|
-------------------|-------------------|-------------------|-------------------|
-------------------|-------------------|-------------------|-------------------|
-------------------|-------------------|-------------------|-------------------|


  W                   W                   W                   W                 
-------------------|-------------------|-------------------|-------------------|
-------------------|-------------------|-------------------|-------------------|
-------------------|-------------------|-------------------|-------------------|
-------------------|-------------------|-------------------|-------------------|


  W                   W                   W                   W                 
-------------------|-------------------|-------------------|-------------------|
-------------------|-------------------|-------------------|-------------------|
-------------------|-------------------|-------------------|-------------------|
-------------------|-------------------|-------------------|-------------------|


  W                   W                   W                 
-------------------|-------------------|-------------------|
-------------------|-------------------|-------------------|
-------------------|-------------------|-------------------|
-------------------|-------------------|-------------------|


  Q    Q    E.  S E  E     Q    Q    S S E  S S E     E  E  E  E  S E  S E  E   
--2----2----2---2-2--2--|------------2-------------|--------4------------------|
------------------------|--0----0------0--------0--|--2--2-----2--0---------0--|
------------------------|----------------3--0-3----|----------------2--0-2-----|
------------------------|--------------------------|---------------------------|


  Q    Q    S S E  S S E     E  E  E  S E  S E  Q     
--2----2------2-0----0-2--|--------4-----------------|
------------2------2------|--2--2-----2-0----0--2----|
--------------------------|----------------2---------|
--------------------------|--------------------------|


  Q    E  S E  S E  E  E     Q    E  E  E  E  E  E   
--0-------0---------------|----------0--------------|
-------0----3--0-3--3--3--|-------------------------|
--------------------------|--3----3-----3-----1--3--|
--------------------------|----------------3--------|


  E  E  E  E  S S S S S S S S    Q    Q    E.  S E  E   
--------------------4---------|--2----2----2---2-2--2--|
--2-----2-----2-2-2---0---0-2-|------------------------|
------------------------------|------------------------|
------------------------0-----|------------------------|


  Q    E.  S S E  S E  E     E  E  E  E  S E  S E  E   
-----------2--------------|--------4------------------|
--0----0-----0---------0--|--2--2-----2--0---------0--|
---------------3--0-3-----|----------------2--0-2-----|
--------------------------|---------------------------|


  Q    E.  S S E  S E  E     E  E  E  S E  S E  Q     
--2----2-----2-0----0--2--|--------4-----------------|
-----------2------2-------|--2--2-----2-0----0--2----|
--------------------------|----------------2---------|
--------------------------|--------------------------|


  Q    E  S E  S E  E  E     Q    E  E  E  E  E  E   
--0-------0---------------|----------0--------------|
-------0----3--0-3--3--3--|-------------------------|
--------------------------|--3----3-----3-----1--3--|
--------------------------|----------------3--------|


  Q    E  E  S S S S S S S S    Q    E  E  Q.     E     Q.     E  Q    E  E   
-------------------4---------|-------------1------1--|-----------------------|
--2----2-----2-2-2---0---0-2-|-----------------------|--4------4--2-------2--|
-----------------------------|--0-------0------------|-----------------------|
-----------------------0-----|-----------------------|-----------------------|


  Q.     E  Q.     E     Q.     E  S E  E  S E     E.  S Q    Q    Q     
----------------------|------------0----0----0--|-----------------------|
--0------0------------|--------------0-----0----|--0---0-0----0----0----|
------------4------4--|--2------2---------------|-----------------------|
----------------------|-------------------------|-----------------------|


  Q    E  E  Q    E  E     Q    E  E  Q    E  E     Q    E  E  Q    E  E   
--2-------2-------4-----|-------2----------4-----|--2-------2-------4-----|
-------2-----2-------2--|--0-------0--2-------2--|-------2-----2-------2--|
------------------------|------------------------|------------------------|
------------------------|------------------------|------------------------|


  Q    E  E  Q    E  E     Q.     E  Q.     E     Q.     E  Q.     E   
-------2----------4-----|--2------2--2------2--|----------------------|
--0-------0--2-------2--|----------------------|------------4------4--|
------------------------|----------------------|--4------4------------|
------------------------|----------------------|----------------------|


  Q    E  E  Q    Q       Q.     E  Q    Q       Q    E  Q.     Q     
-----------------------|----------------------|--2----2--2------2----|
--2-------2--0---------|------------2----2----|----------------------|
------------------4----|--2------2------------|----------------------|
-----------------------|----------------------|----------------------|


  Q.     E  Q    Q       W                   W                 
--2------2------------|-------------------|-------------------|
------------0----2----|--2----------------|-------------------|
----------------------|-------------------|-------------------|
----------------------|-------------------|-------------------|


  W                   W                   W                   W                 
-------------------|-------------------|-------------------|-------------------|
-------------------|-------------------|-------------------|-------------------|
-------------------|-------------------|-------------------|-------------------|
-------------------|-------------------|-------------------|-------------------|


  W                   W                   W                  
-------------------|-------------------|-------------------||
-------------------|-------------------|-------------------||
-------------------|-------------------|-------------------||
-------------------|-------------------|-------------------||




Duration Legend
---------------
W - whole
H - half
Q - quarter
E - 8th
S - 16th
T - 32nd
X - 64th
. - note dotted
|-n-|  - n-tuplets


Tablature Legend
----------------
L - tied note
x - dead note
g - grace note
(n) - ghost note
> - accentuded note
NH - natural harmonic
AH - artificial harmonic
TH - tapped harmonic
SH - semi harmonic
PH - pitch harmonic
h - hammer on
p - pull off
b - bend
br - bendRelease
pb - preBend
pbr - preBendRelease
brb - bendReleaseBend
\n/ - tremolo bar dip
\n - tremolo bar dive
-/n - tremolo bar Release up
/n\ - tremolo bar inverted dip
/n - tremolo bar return
-\n - tremolo bar Release down
S - shift slide
s - legato slide
/ -  slide into from below or out of upwards
\ -  slide into from above or out of downwards
~ - vibrato
W - wide vibrato
tr - trill
TP - tremolo picking
T - tapping
S - slap
P - pop
< - fade in
^ - brush up
v - brush down
comments
We did not receive enough feedback on this tab! Please rate:
print report bad tab
1 2 3 4 5
I want to post or [tab]
guest
You may want to rate the tab now too:
select rating
Please do not post tabs as comments. Select "correction" instead!