Oops, an error
Loading. Please wait.

Anthem Tab

ver1
ver1

Whole song

Interactive

More versions @911Tabs.com
3,598 views 9 this week
no commentswrite comment
1 2 3 4 5
excellent!
x 1
Autoscroll
+/-
esc
set tempo
stop
Hey! There's an official Ultimate Guitar app which is ideal
for learning songs when you're away from computer. Get the app
WARNING: You are trying to view
                                    content from Ultimate-Guitar.com
                                    in an unauthorized application,
                                    which is prohibited.

                                    Please use an official Ultimate
                                    Guitar Tabs application for iPhone,
                                    iPad or Android to access legitimate
                                    chords, guitar, bass, and drum tabs
                                    from Ultimate-Guitar.com database.

                                    Type "ultimate guitar tabs" in Apple
                                    App Store's or Android Market's
                                    search to find the application.
Band: Deep Purple
Song: Anthem




Guitar 1:



     W                   W                   W                 
E||-------------------|-------------------|-------------------|
B||-------------------|-------------------|-------------------|
G||-------------------|-------------------|-------------------|
D||-------------------|-------------------|-------------------|
A||-------------------|-------------------|-------------------|
E||-------------------|-------------------|-------------------|


  W                   Q    S S S S Q    S S S S    Q    S S S S Q    S S S S  
-------------------|--0----0-0-0-0-0----0-0-0-0-|--2----2-2-2-2-0----0-0-0-0-|
-------------------|--1----1-1-1-1-1----1-1-1-1-|--3----3-3-3-3-0----0-0-0-0-|
-------------------|--2----2-2-2-2-2----2-2-2-2-|--2----2-2-2-2-1----1-1-1-1-|
-------------------|--2----2-2-2-2-2----2-2-2-2-|--0----0-0-0-0-2----2-2-2-2-|
-------------------|--0----0-0-0-0-0----0-0-0-0-|---------------2----2-2-2-2-|
-------------------|----------------------------|---------------0----0-0-0-0-|


  Q    S S S S Q    S S S S    Q    S S S S Q    Q     
--0----0-0-0-0-0----0-0-0-0-|--1----1-1-1-1-1----0----|
--1----1-1-1-1-1----1-1-1-1-|--1----1-1-1-1-3----0----|
--2----2-2-2-2-2----2-2-2-2-|--2----2-2-2-2-2----1----|
--2----2-2-2-2-2----2-2-2-2-|--3----3-3-3-3-0----2----|
--0----0-0-0-0-0----0-0-0-0-|--3----3-3-3-3------2----|
----------------------------|--1----1-1-1-1------0----|


  Q    S S S S Q    S S S S    Q    S S S S Q    Q       E.  S Q    Q    Q     
--0----0-0-0-0-0----0-0-0-0-|--1----1-1-1-1-1----1----|--0---0-0----0----0----|
--1----1-1-1-1-1----1-1-1-1-|--1----1-1-1-1-3----3----|--0---0-0----0----0----|
--2----2-2-2-2-0----0-0-0-0-|--2----2-2-2-2-2----2----|--1---1-1----1----1----|
--2----2-2-2-2-2----2-2-2-2-|--3----3-3-3-3-0----0----|--2---2-2----2----2----|
--0----0-0-0-0-3----3-3-3-3-|--3----3-3-3-3-----------|--2---2-2----2----2----|
----------------------------|--1----1-1-1-1-----------|--0---0-0----0----0----|


  S E  S Q    E  E  E  E     E  S S E  E  S E  S E  E   
--0----0-0----0--0--0-----|--2----2-2-----0-0--0-0--0--|
--1----1-1----1--1--1-----|--3----3-3-----0-0--0-0--0--|
--2----2-2----2--2--2-----|--2----2-2-----1-1--1-1--1--|
--2----2-2----2--2--2-----|--0----0-0-----2-2--2-2--2--|
--0----0-0----0--0--0-----|---------------2-2--2-2--2--|
--------------------------|---------------0-0--0-0--0--|


  E  S S E  E  E  S S E  E     E  S S E  E  S E  S E  E   
--0----0-0-----0----0-0-----|--1----1-1-----1-1--1-0--0--|
--1----1-1-----1----1-1-----|--1----1-1-----3-3--3-0--0--|
--2----2-2-----0----0-0-----|--2----2-2-----2-2--2-1--1--|
--2----2-2-----2----2-2-----|--3----3-3-----0-0--0-2--2--|
--0----0-0-----3----3-3-----|--3----3-3------------2--2--|
----------------------------|--1----1-1------------0--0--|


  E  S S E  E  E  S S E  E     E  S S E  E  S E  S E  E   
--0----0-0-----0----0-0-----|--1----1-1-----1-1--1-1--1--|
--1----1-1-----1----1-1-----|--1----1-1-----3-3--3-3--3--|
--2----2-2-----0----0-0-----|--2----2-2-----2-2--2-2--2--|
--2----2-2-----2----2-2-----|--3----3-3-----0-0--0-0--0--|
--0----0-0-----3----3-3-----|--3----3-3------------------|
----------------------------|--1----1-1------------------|


  E  S S E  E  E  S S E  E     E  S E  E  S E  E  E  E   
--0----0-0-----0----0-0-----|--0--0----0----0-----0--0--|
--0----0-0-----0----0-0-----|--0--0----0----0-----0--0--|
--1----1-1-----1----1-1-----|--1--1----1----1-----1--1--|
--2----2-2-----2----2-2-----|--2--2----2----2-----2--2--|
--2----2-2-----2----2-2-----|--2--2----2----2-----2--2--|
--0----0-0-----0----0-0-----|--0--0----0----0-----0--0--|


  Q    S S S S Q    S S S S    Q    S S S S Q    S S S S  
--0----0-0-0-0-0----0-0-0-0-|--0----0-0-0-0-0----0-0-0-0-|
--2----2-2-2-2-0----0-0-0-0-|--2----2-2-2-2-0----0-0-0-0-|
--2----2-2-2-2-1----1-1-1-1-|--2----2-2-2-2-1----1-1-1-1-|
--2----2-2-2-2-2----2-2-2-2-|--2----2-2-2-2-2----2-2-2-2-|
--0----0-0-0-0-2----2-2-2-2-|--0----0-0-0-0-2----2-2-2-2-|
---------------0----0-0-0-0-|---------------0----0-0-0-0-|


  Q    S S S S Q    S S S S    Q    S S S S Q    Q     
--2----2-2-2-2-0----0-0-0-0-|--2----2-2-2-2-3----3----|
--3----3-3-3-3-2----2-2-2-2-|--3----3-3-3-3-3----3----|
--2----2-2-2-2-2----2-2-2-2-|--4----4-4-4-4-4----4----|
--0----0-0-0-0-2----2-2-2-2-|--4----4-4-4-4-5----5----|
---------------0----0-0-0-0-|--2----2-2-2-2-5----5----|
----------------------------|---------------3----3----|


  E.  S Q    E.  S E  E     Q    E  E  Q    E  E     Q    E  E  Q    E  E   
--2---2-2----2---2-2--2--|--0-------0--0-------0--|--2-------2--0-------0--|
--3---3-3----3---3-3--3--|--2-------2--0-------0--|--3-------3--0-------0--|
--2---2-2----2---2-2--2--|--2-------2--1-------1--|--2-------2--1-------1--|
--0---0-0----0---0-0--0--|--2-------2--2-------2--|--0-------0--2-------2--|
-------------------------|--0-------0--2-------2--|-------------2-------2--|
-------------------------|-------------0-------0--|-------------0-------0--|


  Q    E  E  Q    E  E     Q    E  E  Q    E  E     Q    E  E  E  E  E  E   
--0-------0--0-------0--|--2-------2--0-------0--|--0----0--0--2-----2--2--|
--2-------2--0-------0--|--3-------3--0-------0--|--2----2--2--3-----3--3--|
--2-------2--1-------1--|--2-------2--1-------1--|--2----2--2--2-----2--2--|
--2-------2--2-------2--|--0-------0--2-------2--|--2----2--2--0-----0--0--|
--0-------0--2-------2--|-------------2-------2--|--0----0--0--------------|
-------------0-------0--|-------------0-------0--|-------------------------|


  E  E  E  E  E  E  E  E     Q    E  E  E  E  E  E     Q    E  E  Q    E  E   
--4--4--4-----2-----2--2--|--0-------0--2-----0-----|--2-------2--0-------0--|
--6--6--6-----2-----2--2--|--2-------2--3-----2-----|--3-------3--0-------0--|
--6--6--6-----2-----2--2--|--2-------2--2-----2-----|--4-------4--1-------1--|
--6--6--6-----4-----4--4--|--2-------2--0-----2-----|--4-------4--2-------2--|
--4--4--4-----4-----4--4--|--0-------0--------0-----|--2-------2--2-------2--|
--------------2-----2--2--|-------------------------|-------------0-------0--|


  Q    E  E  E  E  Q       W                   E  S S E  S S S E  S E  E   
--0-------0-----0-------|-------------------|--0--0-0-0--0-0-0-0--0-0--0--|
--2-------2-----2-------|-------------------|--1--1-1-1--1-1-1-1--1-1--1--|
--2-------2-----2-------|-------------------|--2--2-2-2--2-2-2-2--2-2--2--|
--2-------2-----2-------|-------------------|--2--2-2-2--2-2-2-2--2-2--2--|
--0-------0-----0-------|-------------------|--0--0-0-0--0-0-0-0--0-0--0--|
------------------------|-------------------|-----------------------------|


  E  S S E  S S S E  S E  E     E  S S E  S S S E  S E  E   
--2--2-2-2--2-2-0-0--0-0--0--|--0--0-0-0--0-0-0-0--0-0--0--|
--3--3-3-3--3-3-0-0--0-0--0--|--1--1-1-1--1-1-1-1--1-1--1--|
--2--2-2-2--2-2-1-1--1-1--1--|--2--2-2-2--2-2-0-0--0-0--0--|
--0--0-0-0--0-0-2-2--2-2--2--|--2--2-2-2--2-2-2-2--2-2--2--|
----------------2-2--2-2--2--|--0--0-0-0--0-0-3-3--3-3--3--|
----------------0-0--0-0--0--|-----------------------------|


  E  S S E  S S S E  S E  E     E  S S E  S S S E  S E  E   
--1--1-1-1--1-1-1-1--1-0--0--|--0--0-0-0--0-0-0-0--0-0--0--|
--1--1-1-1--1-1-1-1--1-0--0--|--1--1-1-1--1-1-1-1--1-1--1--|
--2--2-2-2--2-2-2-2--2-1--1--|--2--2-2-2--2-2-0-0--0-0--0--|
--3--3-3-3--3-3-3-3--3-2--2--|--2--2-2-2--2-2-2-2--2-2--2--|
--3--3-3-3--3-3-3-3--3-2--2--|--0--0-0-0--0-0-3-3--3-3--3--|
--1--1-1-1--1-1-1-1--1-0--0--|-----------------------------|


  E  S S E  S S S E  S E  E     E  S S E  S S S E  S E  E   
--1--1-1-1--1-1-1-1--1-1--1--|--0--0-0-0--0-0-0-0--0-0--0--|
--1--1-1-1--1-1-3-3--3-3--3--|--0--0-0-0--0-0-0-0--0-0--0--|
--2--2-2-2--2-2-2-2--2-2--2--|--1--1-1-1--1-1-1-1--1-1--1--|
--3--3-3-3--3-3-0-0--0-0--0--|--2--2-2-2--2-2-2-2--2-2--2--|
--3--3-3-3--3-3--------------|--2--2-2-2--2-2-2-2--2-2--2--|
--1--1-1-1--1-1--------------|--0--0-0-0--0-0-0-0--0-0--0--|


  E  S S E  S S E  S S S S S S    E  S S E  S S S E  S E  E   
--0--0-0-0--0-0-0--0-0-0-0-0-0-|--2--2-2-2--2-2-0-0--0-0--0--|
--1--1-1-1--1-1-1--1-1-1-1-1---|--3--3-3-3--3-3-0-0--0-0--0--|
--2--2-2-2--2-2-2--2-2-2-2-2-2-|--2--2-2-2--2-2-1-1--1-1--1--|
--2--2-2-2--2-2-2--2-2-2-2-2-2-|--0--0-0-0--0-0-2-2--2-2--2--|
--0--0-0-0--0-0-0--0-0-0-0-0-0-|----------------2-2--2-2--2--|
-------------------------------|----------------0-0--0-0--0--|


  E  S S E  S S E  S S E  S S    E  S S E  S S S E  S S S S S  
--0--0-0-0--0-0-0--0-0-0--0-0-|--1--1-1-1--1-1-1-1--1-0-0-0-0-|
--1--1-1-1--1-1-1--1-1-1--1-1-|--1--1-1-1--1-1-3-3--3-0-0-0-0-|
--2--2-2-2--2-2-0--0-0-0--0-0-|--2--2-2-2--2-2-2-2--2-1-1-1-1-|
--2--2-2-2--2-2-2--2-2-2--2-2-|--3--3-3-3--3-3-0-0--0-2-2-2-2-|
--0--0-0-0--0-0-3--3-3-3--3-3-|--3--3-3-3--3-3--------2-2-2-2-|
------------------------------|--1--1-1-1--1-1--------0-0-0-0-|


  E  S S E  S S S E  S E  S S    E  S S E  S S S E  S E  S S  
--0--0-0-0--0-0-0-0--0-0--0-0-|--1--1-1-1--1-1-1-1--1-1--1-1-|
--1--1-1-1--1-1-1-1--1-1--1-1-|--1--1-1-1--1-1-3-3--3-3--3-3-|
--2--2-2-2--2-2-0-0--0-0--0-0-|--2--2-2-2--2-2-2-2--2-2--2-2-|
--2--2-2-2--2-2-2-2--2-2--2-2-|--3--3-3-3--3-3-0-0--0-0--0-0-|
--0--0-0-0--0-0-3-3--3-3--3-3-|--3--3-3-3--3-3---------------|
------------------------------|--1--1-1-1--1-1---------------|


  E  S S E  S S S E  S E  S S    E  S S E  S S S E  S E  E   
--0--0-0-0--0-0-0-0--0-0--0-0-|--0--0-0-0--0-0-0-0--0-0--0--|
--0--0-0-0--0-0-0-0--0-0--0-0-|--0--0-0-0--0-0-0-0--0-0--0--|
--1--1-1-1--1-1-1-1--1-1--1-1-|--1--1-1-1--1-1-1-1--1-1--1--|
--2--2-2-2--2-2-2-2--2-2--2-2-|--2--2-2-2--2-2-2-2--2-2--2--|
--2--2-2-2--2-2-2-2--2-2--2-2-|--2--2-2-2--2-2-2-2--2-2--2--|
--0--0-0-0--0-0-0-0--0-0--0-0-|--0--0-0-0--0-0-0-0--0-0--0--|


  Q    S S S S Q    S S S S    Q    S S S S Q    S S S S  
--0----0-0-0-0-0----0-0-0-0-|--0----0-0-0-0-0----0-0-0-0-|
--2----2-2-2-2-0----0-0-0-0-|--2----2-2-2-2-0----0-0-0-0-|
--2----2-2-2-2-1----1-1-1-1-|--2----2-2-2-2-1----1-1-1-1-|
--2----2-2-2-2-2----2-2-2-2-|--2----2-2-2-2-2----2-2-2-2-|
--0----0-0-0-0-2----2-2-2-2-|--0----0-0-0-0-2----2-2-2-2-|
---------------0----0-0-0-0-|---------------0----0-0-0-0-|


  Q    S S S S Q    S S S S    Q    S S S S Q    Q     
--2----2-2-2-2-0----0-0-0-0-|--2----2-2-2-2-3----3----|
--3----3-3-3-3-2----2-2-2-2-|--3----3-3-3-3-3----3----|
--2----2-2-2-2-2----2-2-2-2-|--4----4-4-4-4-4----4----|
--0----0-0-0-0-2----2-2-2-2-|--4----4-4-4-4-5----5----|
---------------0----0-0-0-0-|--2----2-2-2-2-5----5----|
----------------------------|---------------3----3----|


  Q    E  E  E  E  E  E     Q.     E  Q.     E     Q.     E  Q.     E   
--2----2--2--2--2--2--2--|--0------0--0------0--|--2------2--0------0--|
--3----3--3--3--3--3--3--|--2------2--0------0--|--3------3--0------0--|
--2----2--2--2--2--2--2--|--2------2--1------1--|--2------2--1------1--|
--0----0--0--0--0--0--0--|--2------2--2------2--|--0------0--2------2--|
-------------------------|--0------0--2------2--|------------2------2--|
-------------------------|------------0------0--|------------0------0--|


  Q.     E  Q.     E     Q.     E  Q.     E     E.  S Q    E.  S E  E   
--0------0--0------0--|--2------2--0------0--|--2---2-2----2---2-2--2--|
--2------2--0------0--|--3------3--0------0--|--3---3-3----3---3-3--3--|
--2------2--1------1--|--2------2--1------1--|--2---2-2----2---2-2--2--|
--2------2--2------2--|--0------0--2------2--|--0---0-0----0---0-0--0--|
--0------0--2------2--|------------2------2--|-------------------------|
------------0------0--|------------0------0--|-------------------------|


  Q    E  E  Q    E  E     Q    E  E  Q    E  E     Q    E  E  Q    E  E   
--0-------0--0-------0--|--2-------2--0-------0--|--0-------0--0-------0--|
--2-------2--0-------0--|--3-------3--0-------0--|--2-------2--0-------0--|
--2-------2--1-------1--|--2-------2--1-------1--|--2-------2--1-------1--|
--2-------2--2-------2--|--0-------0--2-------2--|--2-------2--2-------2--|
--0-------0--2-------2--|-------------2-------2--|--0-------0--2-------2--|
-------------0-------0--|-------------0-------0--|-------------0-------0--|


  Q    E  E  Q    E  E     Q    E  E  E  E  E  E     W                 
--2-------2--0-------0--|--0----0--0--2-----2--2--|-------------------|
--3-------3--0-------0--|--2----2--2--3-----3--3--|-------------------|
--2-------2--1-------1--|--2----2--2--2-----2--2--|-------------------|
--0-------0--2-------2--|--2----2--2--0-----0--0--|-------------------|
-------------2-------2--|--0----0--0--------------|-------------------|
-------------0-------0--|-------------------------|-------------------|


  W                   W                   W                   W                 
-------------------|-------------------|-------------------|-------------------|
-------------------|-------------------|-------------------|-------------------|
-------------------|-------------------|-------------------|-------------------|
-------------------|-------------------|-------------------|-------------------|
-------------------|-------------------|-------------------|-------------------|
-------------------|-------------------|-------------------|-------------------|


  W                   W                   W                   W                 
-------------------|-------------------|-------------------|-------------------|
-------------------|-------------------|-------------------|-------------------|
-------------------|-------------------|-------------------|-------------------|
-------------------|-------------------|-------------------|-------------------|
-------------------|-------------------|-------------------|-------------------|
-------------------|-------------------|-------------------|-------------------|


  W                   W                   W                   W                 
-------------------|-------------------|-------------------|-------------------|
-------------------|-------------------|-------------------|-------------------|
-------------------|-------------------|-------------------|-------------------|
-------------------|-------------------|-------------------|-------------------|
-------------------|-------------------|-------------------|-------------------|
-------------------|-------------------|-------------------|-------------------|


  W                   W                   W                   W                 
-------------------|-------------------|-------------------|-------------------|
-------------------|-------------------|-------------------|-------------------|
-------------------|-------------------|-------------------|-------------------|
-------------------|-------------------|-------------------|-------------------|
-------------------|-------------------|-------------------|-------------------|
-------------------|-------------------|-------------------|-------------------|


  W                   W                   W                   W                 
-------------------|-------------------|-------------------|-------------------|
-------------------|-------------------|-------------------|-------------------|
-------------------|-------------------|-------------------|-------------------|
-------------------|-------------------|-------------------|-------------------|
-------------------|-------------------|-------------------|-------------------|
-------------------|-------------------|-------------------|-------------------|


  W                   W                   W                   W                 
-------------------|-------------------|-------------------|-------------------|
-------------------|-------------------|-------------------|-------------------|
-------------------|-------------------|-------------------|-------------------|
-------------------|-------------------|-------------------|-------------------|
-------------------|-------------------|-------------------|-------------------|
-------------------|-------------------|-------------------|-------------------|


  W                   W                   W                   W                 
-------------------|-------------------|-------------------|-------------------|
-------------------|-------------------|-------------------|-------------------|
-------------------|-------------------|-------------------|-------------------|
-------------------|-------------------|-------------------|-------------------|
-------------------|-------------------|-------------------|-------------------|
-------------------|-------------------|-------------------|-------------------|


  W                   W                   W                   W                 
-------------------|-------------------|-------------------|-------------------|
-------------------|-------------------|-------------------|-------------------|
-------------------|-------------------|-------------------|-------------------|
-------------------|-------------------|-------------------|-------------------|
-------------------|-------------------|-------------------|-------------------|
-------------------|-------------------|-------------------|-------------------|


  W                   W                   W                   W                 
-------------------|-------------------|-------------------|-------------------|
-------------------|-------------------|-------------------|-------------------|
-------------------|-------------------|-------------------|-------------------|
-------------------|-------------------|-------------------|-------------------|
-------------------|-------------------|-------------------|-------------------|
-------------------|-------------------|-------------------|-------------------|


  W                   W                   W                   W                 
-------------------|-------------------|-------------------|-------------------|
-------------------|-------------------|-------------------|-------------------|
-------------------|-------------------|-------------------|-------------------|
-------------------|-------------------|-------------------|-------------------|
-------------------|-------------------|-------------------|-------------------|
-------------------|-------------------|-------------------|-------------------|


  W                   W                   W                   W                 
-------------------|-------------------|-------------------|-------------------|
-------------------|-------------------|-------------------|-------------------|
-------------------|-------------------|-------------------|-------------------|
-------------------|-------------------|-------------------|-------------------|
-------------------|-------------------|-------------------|-------------------|
-------------------|-------------------|-------------------|-------------------|


  W                   W                   W                   W                 
-------------------|-------------------|-------------------|-------------------|
-------------------|-------------------|-------------------|-------------------|
-------------------|-------------------|-------------------|-------------------|
-------------------|-------------------|-------------------|-------------------|
-------------------|-------------------|-------------------|-------------------|
-------------------|-------------------|-------------------|-------------------|


  W                   W                   W                 
-------------------|-------------------|-------------------|
-------------------|-------------------|-------------------|
-------------------|-------------------|-------------------|
-------------------|-------------------|-------------------|
-------------------|-------------------|-------------------|
-------------------|-------------------|-------------------|


  Q    S S S S Q    S S S S    Q    S S S S Q    S S S S  
--0----0-0-0-0-0----0-0-0-0-|--0----0-0-0-0-0----0-0-0-0-|
--2----2-2-2-2-0----0-0-0-0-|--2----2-2-2-2-0----0-0-0-0-|
--2----2-2-2-2-1----1-1-1-1-|--2----2-2-2-2-1----1-1-1-1-|
--2----2-2-2-2-2----2-2-2-2-|--2----2-2-2-2-2----2-2-2-2-|
--0----0-0-0-0-2----2-2-2-2-|--0----0-0-0-0-2----2-2-2-2-|
---------------0----0-0-0-0-|---------------0----0-0-0-0-|


  Q    S S S S Q    S S S S    Q    S S S S Q    Q     
--2----2-2-2-2-0----0-0-0-0-|--2----2-2-2-2-3----3----|
--3----3-3-3-3-2----2-2-2-2-|--3----3-3-3-4-3----3----|
--2----2-2-2-2-2----2-2-2-2-|--4----4-4-4-4-4----4----|
--0----0-0-0-0-2----2-2-2-2-|--4----4-4-4-4-5----5----|
---------------0----0-0-0-0-|--2----2-2-2-2-5----5----|
----------------------------|---------------3----3----|


  E.  S Q    E.  S E  E     Q    E  E  Q    E  E     Q    E  E  Q    E  E   
--2---2-2----2---2-2--2--|--0-------0--0-------0--|--2-------2--0-------0--|
--3---3-3----3---3-3--3--|--2-------2--0-------0--|--3-------3--0-------0--|
--2---2-2----2---2-2--2--|--2-------2--1-------1--|--2-------2--1-------1--|
--0---0-0----0---0-0--0--|--2-------2--2-------2--|--0-------0--2-------2--|
-------------------------|--0-------0--2-------2--|-------------2-------2--|
-------------------------|-------------0-------0--|-------------0-------0--|


  Q    E  E  Q    E  E     Q    E  E  Q    E  E     Q    E  E  E  E  E  E   
--0-------0--0-------0--|--2-------2--0-------0--|--0----0--0--2-----2--2--|
--2-------2--0-------0--|--3-------3--0-------0--|--2----2--2--3-----3--3--|
--2-------2--1-------1--|--2-------2--1-------1--|--2----2--2--2-----2--2--|
--2-------2--2-------2--|--0-------0--2-------2--|--2----2--2--0-----0--0--|
--0-------0--2-------2--|-------------2-------2--|--0----0--0--------------|
-------------0-------0--|-------------0-------0--|-------------------------|


  Q    E  E  Q    E  E     Q    E  E  E  E  E  E     Q.     E  Q    E  E   
--4----4--4--2----2--2--|--0-------0--2-----0-----|--2------2--0----0--0--|
--6----6--6--2----2--2--|--2-------2--3-----2-----|--3------3--0----0--2--|
--6----6--6--2----2--2--|--2-------2--2-----2-----|--4------4--1----1--2--|
--6----6--6--4----4--4--|--2-------2--0-----2-----|--4------4--2----2--2--|
--4----4--4--4----4--4--|--0-------0--------0-----|--2------2--2----2--0--|
-------------2----2--2--|-------------------------|------------0----0-----|


  Q.     E  E  Q.        W                   W                 
--0------0--0---------|-------------------|-------------------|
--2------2--2---------|-------------------|-------------------|
--2------2--2---------|-------------------|-------------------|
--2------2--2---------|-------------------|-------------------|
--0------0--0---------|-------------------|-------------------|
----------------------|-------------------|-------------------|


  W                   W                   W                   W                 
-------------------|-------------------|-------------------|-------------------|
-------------------|-------------------|-------------------|-------------------|
-------------------|-------------------|-------------------|-------------------|
-------------------|-------------------|-------------------|-------------------|
-------------------|-------------------|-------------------|-------------------|
-------------------|-------------------|-------------------|-------------------|


  W                   W                   W                 
-------------------|-------------------|-------------------|
-------------------|-------------------|-------------------|
-------------------|-------------------|-------------------|
-------------------|-------------------|-------------------|
-------------------|-------------------|-------------------|
-------------------|-------------------|-------------------|


  W                  
-------------------||
-------------------||
-------------------||
-------------------||
-------------------||
-------------------||










Guitar 2: 



     W                   W                   W                 
E||-------------------|-------------------|-------------------|
B||-------------------|-------------------|-------------------|
G||-------------------|-------------------|-------------------|
D||-------------------|-------------------|-------------------|
A||-------------------|-------------------|-------------------|
E||-------------------|-------------------|-------------------|


  W                   W                   W                   W                 
-------------------|-------------------|-------------------|-------------------|
-------------------|-------------------|-------------------|-------------------|
-------------------|-------------------|-------------------|-------------------|
-------------------|-------------------|-------------------|-------------------|
-------------------|-------------------|-------------------|-------------------|
-------------------|-------------------|-------------------|-------------------|


  W                   W                   W                   W                 
-------------------|-------------------|-------------------|-------------------|
-------------------|-------------------|-------------------|-------------------|
-------------------|-------------------|-------------------|-------------------|
-------------------|-------------------|-------------------|-------------------|
-------------------|-------------------|-------------------|-------------------|
-------------------|-------------------|-------------------|-------------------|


  W                   W                   W                   W                 
-------------------|-------------------|-------------------|-------------------|
-------------------|-------------------|-------------------|-------------------|
-------------------|-------------------|-------------------|-------------------|
-------------------|-------------------|-------------------|-------------------|
-------------------|-------------------|-------------------|-------------------|
-------------------|-------------------|-------------------|-------------------|


  W                   W                   W                   W                 
-------------------|-------------------|-------------------|-------------------|
-------------------|-------------------|-------------------|-------------------|
-------------------|-------------------|-------------------|-------------------|
-------------------|-------------------|-------------------|-------------------|
-------------------|-------------------|-------------------|-------------------|
-------------------|-------------------|-------------------|-------------------|


  W                   W                   W                   W                 
-------------------|-------------------|-------------------|-------------------|
-------------------|-------------------|-------------------|-------------------|
-------------------|-------------------|-------------------|-------------------|
-------------------|-------------------|-------------------|-------------------|
-------------------|-------------------|-------------------|-------------------|
-------------------|-------------------|-------------------|-------------------|


  W                   W                   W                   W                 
-------------------|-------------------|-------------------|-------------------|
-------------------|-------------------|-------------------|-------------------|
-------------------|-------------------|-------------------|-------------------|
-------------------|-------------------|-------------------|-------------------|
-------------------|-------------------|-------------------|-------------------|
-------------------|-------------------|-------------------|-------------------|


  W                   W                   W                   W                 
-------------------|-------------------|-------------------|-------------------|
-------------------|-------------------|-------------------|-------------------|
-------------------|-------------------|-------------------|-------------------|
-------------------|-------------------|-------------------|-------------------|
-------------------|-------------------|-------------------|-------------------|
-------------------|-------------------|-------------------|-------------------|


  W                   W                   W                   W                 
-------------------|-------------------|-------------------|-------------------|
-------------------|-------------------|-------------------|-------------------|
-------------------|-------------------|-------------------|-------------------|
-------------------|-------------------|-------------------|-------------------|
-------------------|-------------------|-------------------|-------------------|
-------------------|-------------------|-------------------|-------------------|


  W                   W                   W                   W                 
-------------------|-------------------|-------------------|-------------------|
-------------------|-------------------|-------------------|-------------------|
-------------------|-------------------|-------------------|-------------------|
-------------------|-------------------|-------------------|-------------------|
-------------------|-------------------|-------------------|-------------------|
-------------------|-------------------|-------------------|-------------------|


  W                   W                   W                   W                 
-------------------|-------------------|-------------------|-------------------|
-------------------|-------------------|-------------------|-------------------|
-------------------|-------------------|-------------------|-------------------|
-------------------|-------------------|-------------------|-------------------|
-------------------|-------------------|-------------------|-------------------|
-------------------|-------------------|-------------------|-------------------|


  W                   W                   W                   W                 
-------------------|-------------------|-------------------|-------------------|
-------------------|-------------------|-------------------|-------------------|
-------------------|-------------------|-------------------|-------------------|
-------------------|-------------------|-------------------|-------------------|
-------------------|-------------------|-------------------|-------------------|
-------------------|-------------------|-------------------|-------------------|


  W                   W                   W                   W                 
-------------------|-------------------|-------------------|-------------------|
-------------------|-------------------|-------------------|-------------------|
-------------------|-------------------|-------------------|-------------------|
-------------------|-------------------|-------------------|-------------------|
-------------------|-------------------|-------------------|-------------------|
-------------------|-------------------|-------------------|-------------------|


  W                   W                   W                   W                 
-------------------|-------------------|-------------------|-------------------|
-------------------|-------------------|-------------------|-------------------|
-------------------|-------------------|-------------------|-------------------|
-------------------|-------------------|-------------------|-------------------|
-------------------|-------------------|-------------------|-------------------|
-------------------|-------------------|-------------------|-------------------|


  W                   W                   W                   W                 
-------------------|-------------------|-------------------|-------------------|
-------------------|-------------------|-------------------|-------------------|
-------------------|-------------------|-------------------|-------------------|
-------------------|-------------------|-------------------|-------------------|
-------------------|-------------------|-------------------|-------------------|
-------------------|-------------------|-------------------|-------------------|


  W                   W                   W                   W                 
-------------------|-------------------|-------------------|-------------------|
-------------------|-------------------|-------------------|-------------------|
-------------------|-------------------|-------------------|-------------------|
-------------------|-------------------|-------------------|-------------------|
-------------------|-------------------|-------------------|-------------------|
-------------------|-------------------|-------------------|-------------------|


  W                   W                   W                   W                 
-------------------|-------------------|-------------------|-------------------|
-------------------|-------------------|-------------------|-------------------|
-------------------|-------------------|-------------------|-------------------|
-------------------|-------------------|-------------------|-------------------|
-------------------|-------------------|-------------------|-------------------|
-------------------|-------------------|-------------------|-------------------|


  W                   W                   W                   W                 
-------------------|-------------------|-------------------|-------------------|
-------------------|-------------------|-------------------|-------------------|
-------------------|-------------------|-------------------|-------------------|
-------------------|-------------------|-------------------|-------------------|
-------------------|-------------------|-------------------|-------------------|
-------------------|-------------------|-------------------|-------------------|


  W                   W                   W                   W                 
-------------------|-------------------|-------------------|-------------------|
-------------------|-------------------|-------------------|-------------------|
-------------------|-------------------|-------------------|-------------------|
-------------------|-------------------|-------------------|-------------------|
-------------------|-------------------|-------------------|-------------------|
-------------------|-------------------|-------------------|-------------------|


  W                   W                   W                   W                 
-------------------|-------------------|-------------------|-------------------|
-------------------|-------------------|-------------------|-------------------|
-------------------|-------------------|-------------------|-------------------|
-------------------|-------------------|-------------------|-------------------|
-------------------|-------------------|-------------------|-------------------|
-------------------|-------------------|-------------------|-------------------|


  W                   W                   W                   W                 
-------------------|-------------------|-------------------|-------------------|
-------------------|-------------------|-------------------|-------------------|
-------------------|-------------------|-------------------|-------------------|
-------------------|-------------------|-------------------|-------------------|
-------------------|-------------------|-------------------|-------------------|
-------------------|-------------------|-------------------|-------------------|


  W                   W                   W                 
-------------------|-------------------|-------------------|
-------------------|-------------------|-------------------|
-------------------|-------------------|-------------------|
-------------------|-------------------|-------------------|
-------------------|-------------------|-------------------|
-------------------|-------------------|-------------------|


                                                         |--3--|           
   S  S  S  S  Q.       S  S  S  E   S     Q      E  E   S  S  S  Q.       
---------------------------------------|----------------------------------|
---------------------------------------|----------------------------------|
---------------------------------------|----------------------------------|
-----------------------------10--------|--10b~----x-----10----------------|
--12-12-12-12-12~------12-14----12--14-|-------------------14----12~------|
---------------------------------------|----------------------13----------|


   S  S  S  S  E  E   S  S  S  S  E  E   
----------------------------------------|
----------------------------------------|
----------------------------------------|
-----10-12-13-14--------10-12-14--------|
--14-----------------12----------14-----|
----------------------------------------|


   S   S   S   S   S  Q      S  S   S  S  S  S  S  
--------------------------------------------------|
---------------------10~--------------10-------10-|
----------------------------12--------------12----|
--14p-13h-14p-13h-14-----------14p-13----14-------|
--------------------------------------------------|
--------------------------------------------------|


   E    S  S  S  S  S  E.    E   S  S  S  S  
----------------------12~-------------------|
--10~-----------------------13--------------|
-------12-14-12----12-----------14-12-------|
----------------14--------------------14----|
-----------------------------------------13-|
--------------------------------------------|


   S  S  Q.       S   S  S   S   E  E   
---------------------------------------|
------------------------10h-11h-13-----|
-----14-12b------10h-12----------------|
--14-----------------------------------|
---------------------------------------|
---------------------------------------|


   S  S   S   S   E   E   Q.       S   S  
--10-------------------------------------|
-----13p-12p-10h-12----------------------|
---------------------13------------------|
-------------------------14b------14p-13-|
-----------------------------------------|
-----------------------------------------|


   S  E.   E   E   E   E    S   S   S  S  
-----15---12--11--10---------------------|
----------------------13~--12p-10h-12-13-|
-----------------------------------------|
--14-------------------------------------|
-----------------------------------------|
-----------------------------------------|


   S  S   S  S  S   S  S  S   S  S  S   S  S  S   S  S  
--------------------------------10--------10--------10-|
--10-12h-13-10-12h-13-10-12h-13----12h-13----12h-13----|
-------------------------------------------------------|
-------------------------------------------------------|
-------------------------------------------------------|
-------------------------------------------------------|


   S   S  S  S   S  S  S  S  S  E.    Q     
---------10--------10----10----12b----L----|
--12h-13----12h-13----12----12-------------|
-------------------------------------------|
-------------------------------------------|
-------------------------------------------|
-------------------------------------------|


   S  S  S  S  E     S  S  S  S  S  S  S  S  S  S  
--12-12-11-10-------------------------------------|
--------------13b~--12-10-12-13-10-12-------------|
--------------------------------------12-14----12-|
--------------------------------------------14----|
--------------------------------------------------|
--------------------------------------------------|


   S  S  S  S  Q     Q     Q        Q      H.              
--------------------------------|-------------------------|
-----10-------------------------|---------10br------------|
--12----------------------------|--12b--------------------|
--------10----10----14----12----|-------------------------|
-----------12-------------------|-------------------------|
--------------------------------|-------------------------|


  H        E  Q.        H.           E  E     H.           E  E   
---------------------|--0------------0--0--|--1------------1--0--|
--L--------L---------|--1------------0--0--|--3------------3--1--|
---------------------|--2------------1--2--|--2------------2--2--|
---------------------|--2------------2--2--|--0------------0--2--|
---------------------|--0------------2--0--|------------------0--|
---------------------|---------------0--0--|---------------------|


  H.           E  E     W                   H.           S S S S  
--0------------1--3--|--5----------------|--0------------3-5-3-5-|
--0------------1--3--|--5----------------|--0------------3-5-3-5-|
--1------------2--4--|--5----------------|--0------------4-6-4-6-|
--2------------3--5--|--7----------------|--2------------5-7-5-7-|
--2------------3--5--|--7----------------|--2------------5-7-5-7-|
--0------------1--3--|--5----------------|--0------------3-5-3-5-|


  H.           S S S S    H        H           Q    Q    Q    Q     
--3------------3-3-3-3-|--1--------3--------|--5----7----7----7----|
--3------------3-5-3-5-|--1--------5--------|--5----9----9----9----|
--4------------4-5-4-5-|--2--------5--------|--5----9----9----9----|
--5------------5-5-5-5-|--3--------5--------|--7----9----9----9----|
--5------------5-3-5-3-|--3--------3--------|--7----7----7----7----|
--3------------3---3---|--1-----------------|--5-------------------|


  H.           E  E     H.           E  E     H.           E  E   
--1------------0--0--|--0------------3--3--|--0------------1--3--|
--1------------0--1--|--1------------3--3--|--0------------1--3--|
--2------------2--0--|--2------------4--4--|--1------------2--4--|
--3------------2--2--|--2------------5--5--|--2------------3--5--|
--3------------0--3--|--0------------5--5--|--2------------3--5--|
--1------------------|---------------3--3--|--0------------1--3--|


  W                   H.           S S S S    H.           S S S S  
--5----------------|--0------------3-5-3-5-|--3------------3-3-3-3-|
--5----------------|--0------------3-5-3-5-|--3------------3-5-3-5-|
--5----------------|--0------------4-6-4-6-|--4------------4-5-4-5-|
--7----------------|--2------------5-7-5-7-|--5------------5-5-5-5-|
--7----------------|--2------------5-7-5-7-|--5------------5-3-5-3-|
--5----------------|--0------------3-5-3-5-|--3------------3---3---|


  H        H           Q    Q    Q    Q       W                 
--1--------3--------|--5----7----7----7----|-------------------|
--1--------5--------|--5----9----9----9----|-------------------|
--2--------5--------|--5----9----9----9----|-------------------|
--3--------5--------|--7----9----9----9----|-------------------|
--3--------3--------|--7----7----7----7----|-------------------|
--1-----------------|--5-------------------|-------------------|


  W                   W                   W                   W                 
-------------------|-------------------|-------------------|-------------------|
-------------------|-------------------|-------------------|-------------------|
-------------------|-------------------|-------------------|-------------------|
-------------------|-------------------|-------------------|-------------------|
-------------------|-------------------|-------------------|-------------------|
-------------------|-------------------|-------------------|-------------------|


  W                   W                   W                   W                 
-------------------|-------------------|-------------------|-------------------|
-------------------|-------------------|-------------------|-------------------|
-------------------|-------------------|-------------------|-------------------|
-------------------|-------------------|-------------------|-------------------|
-------------------|-------------------|-------------------|-------------------|
-------------------|-------------------|-------------------|-------------------|


  W                   W                   W                   W                 
-------------------|-------------------|-------------------|-------------------|
-------------------|-------------------|-------------------|-------------------|
-------------------|-------------------|-------------------|-------------------|
-------------------|-------------------|-------------------|-------------------|
-------------------|-------------------|-------------------|-------------------|
-------------------|-------------------|-------------------|-------------------|


  W                   W                   W                   W                 
-------------------|-------------------|-------------------|-------------------|
-------------------|-------------------|-------------------|-------------------|
-------------------|-------------------|-------------------|-------------------|
-------------------|-------------------|-------------------|-------------------|
-------------------|-------------------|-------------------|-------------------|
-------------------|-------------------|-------------------|-------------------|


  W                   W                   W                   W                 
-------------------|-------------------|-------------------|-------------------|
-------------------|-------------------|-------------------|-------------------|
-------------------|-------------------|-------------------|-------------------|
-------------------|-------------------|-------------------|-------------------|
-------------------|-------------------|-------------------|-------------------|
-------------------|-------------------|-------------------|-------------------|


  W                   W                   W                  
-------------------|-------------------|-------------------||
-------------------|-------------------|-------------------||
-------------------|-------------------|-------------------||
-------------------|-------------------|-------------------||
-------------------|-------------------|-------------------||
-------------------|-------------------|-------------------||










Guitar 3:



     W                   W                   W                 
E||-------------------|-------------------|-------------------|
B||-------------------|-------------------|-------------------|
G||-------------------|-------------------|-------------------|
D||-------------------|-------------------|-------------------|
A||-------------------|-------------------|-------------------|
E||-------------------|-------------------|-------------------|


  W                   W                   W                   W                 
-------------------|-------------------|-------------------|-------------------|
-------------------|-------------------|-------------------|-------------------|
-------------------|-------------------|-------------------|-------------------|
-------------------|-------------------|-------------------|-------------------|
-------------------|-------------------|-------------------|-------------------|
-------------------|-------------------|-------------------|-------------------|


  W                   W                   W                   W                 
-------------------|-------------------|-------------------|-------------------|
-------------------|-------------------|-------------------|-------------------|
-------------------|-------------------|-------------------|-------------------|
-------------------|-------------------|-------------------|-------------------|
-------------------|-------------------|-------------------|-------------------|
-------------------|-------------------|-------------------|-------------------|


  W                   W                   W                   W                 
-------------------|-------------------|-------------------|-------------------|
-------------------|-------------------|-------------------|-------------------|
-------------------|-------------------|-------------------|-------------------|
-------------------|-------------------|-------------------|-------------------|
-------------------|-------------------|-------------------|-------------------|
-------------------|-------------------|-------------------|-------------------|


  W                   W                   W                   W                 
-------------------|-------------------|-------------------|-------------------|
-------------------|-------------------|-------------------|-------------------|
-------------------|-------------------|-------------------|-------------------|
-------------------|-------------------|-------------------|-------------------|
-------------------|-------------------|-------------------|-------------------|
-------------------|-------------------|-------------------|-------------------|


  W                   W                   W                   W                 
-------------------|-------------------|-------------------|-------------------|
-------------------|-------------------|-------------------|-------------------|
-------------------|-------------------|-------------------|-------------------|
-------------------|-------------------|-------------------|-------------------|
-------------------|-------------------|-------------------|-------------------|
-------------------|-------------------|-------------------|-------------------|


  W                   W                   W                   W                 
-------------------|-------------------|-------------------|-------------------|
-------------------|-------------------|-------------------|-------------------|
-------------------|-------------------|-------------------|-------------------|
-------------------|-------------------|-------------------|-------------------|
-------------------|-------------------|-------------------|-------------------|
-------------------|-------------------|-------------------|-------------------|


  W                   W                   W                   W                 
-------------------|-------------------|-------------------|-------------------|
-------------------|-------------------|-------------------|-------------------|
-------------------|-------------------|-------------------|-------------------|
-------------------|-------------------|-------------------|-------------------|
-------------------|-------------------|-------------------|-------------------|
-------------------|-------------------|-------------------|-------------------|


  W                   W                   W                   W                 
-------------------|-------------------|-------------------|-------------------|
-------------------|-------------------|-------------------|-------------------|
-------------------|-------------------|-------------------|-------------------|
-------------------|-------------------|-------------------|-------------------|
-------------------|-------------------|-------------------|-------------------|
-------------------|-------------------|-------------------|-------------------|


  W                   W                   W                   W                 
-------------------|-------------------|-------------------|-------------------|
-------------------|-------------------|-------------------|-------------------|
-------------------|-------------------|-------------------|-------------------|
-------------------|-------------------|-------------------|-------------------|
-------------------|-------------------|-------------------|-------------------|
-------------------|-------------------|-------------------|-------------------|


  W                   W                   W                   W                 
-------------------|-------------------|-------------------|-------------------|
-------------------|-------------------|-------------------|-------------------|
-------------------|-------------------|-------------------|-------------------|
-------------------|-------------------|-------------------|-------------------|
-------------------|-------------------|-------------------|-------------------|
-------------------|-------------------|-------------------|-------------------|


  W                   W                   W                   W                 
-------------------|-------------------|-------------------|-------------------|
-------------------|-------------------|-------------------|-------------------|
-------------------|-------------------|-------------------|-------------------|
-------------------|-------------------|-------------------|-------------------|
-------------------|-------------------|-------------------|-------------------|
-------------------|-------------------|-------------------|-------------------|


  W                   W                   W                   W                 
-------------------|-------------------|-------------------|-------------------|
-------------------|-------------------|-------------------|-------------------|
-------------------|-------------------|-------------------|-------------------|
-------------------|-------------------|-------------------|-------------------|
-------------------|-------------------|-------------------|-------------------|
-------------------|-------------------|-------------------|-------------------|


  W                   W                   W                   W                 
-------------------|-------------------|-------------------|-------------------|
-------------------|-------------------|-------------------|-------------------|
-------------------|-------------------|-------------------|-------------------|
-------------------|-------------------|-------------------|-------------------|
-------------------|-------------------|-------------------|-------------------|
-------------------|-------------------|-------------------|-------------------|


  W                   W                   W                   W                 
-------------------|-------------------|-------------------|-------------------|
-------------------|-------------------|-------------------|-------------------|
-------------------|-------------------|-------------------|-------------------|
-------------------|-------------------|-------------------|-------------------|
-------------------|-------------------|-------------------|-------------------|
-------------------|-------------------|-------------------|-------------------|


  W                   W                   W                   W                 
-------------------|-------------------|-------------------|-------------------|
-------------------|-------------------|-------------------|-------------------|
-------------------|-------------------|-------------------|-------------------|
-------------------|-------------------|-------------------|-------------------|
-------------------|-------------------|-------------------|-------------------|
-------------------|-------------------|-------------------|-------------------|


  W                   W                   H.           E   E   
-------------------|-------------------|----------------------|
-------------------|-------------------|----------------------|
-------------------|-------------------|----------------------|
-------------------|-------------------|----------------------|
-------------------|-------------------|------------------12--|
-------------------|-------------------|----------------------|


   S  S  S  S  S  S  S  S  E   T  T  T  T  E   E   
--------------------------------------------------|
------------------------------11----11------------|
--------------10----10-12-14-----14----14-14--12--|
--12-11-12-14----14-------------------------------|
--------------------------------------------------|
--------------------------------------------------|


   E   S  S  E   E   E   E   E   E      S  S  S  S  S  S  S  S  E   E   E   E   
------------------------------------|------------------------------------------|
------------------------------------|------------------------------------------|
--10--------------------------------|--------------------------10--------------|
------14-12-14------12--10----------|-----------11-12----12-14-----12--12--11--|
----------------12----------14------|--12-11-12-------12-----------------------|
--------------------------------12--|------------------------------------------|


   E   S  S  E   E   S  S  S  S  S  S  S  S  
--------------------------------------------|
-----------------------------------------12-|
--------------------------10-------13-14----|
------11----14------14-10-------14----------|
--12------------14-----------14-------------|
---------13---------------------------------|


   S  S  S  S  S  S  S  T  T  E   E   E   E   
---------------------------------------------|
--------------------------11-10--------------|
--10----10-12-14-12-14-14--------12--10------|
-----14----------------------------------14--|
---------------------------------------------|
---------------------------------------------|


   E   S  S  E   E   E   E   E   E     W                   W                 
--------------------10--12----------|-------------------|-------------------|
---------11-----14------------------|-------------------|-------------------|
--10--12----14--------------13------|-------------------|-------------------|
--------------------------------14--|-------------------|-------------------|
------------------------------------|-------------------|-------------------|
------------------------------------|-------------------|-------------------|


  W                   W                   W                   W                 
-------------------|-------------------|-------------------|-------------------|
-------------------|-------------------|-------------------|-------------------|
-------------------|-------------------|-------------------|-------------------|
-------------------|-------------------|-------------------|-------------------|
-------------------|-------------------|-------------------|-------------------|
-------------------|-------------------|-------------------|-------------------|


  W                   W                   W                   W                 
-------------------|-------------------|-------------------|-------------------|
-------------------|-------------------|-------------------|-------------------|
-------------------|-------------------|-------------------|-------------------|
-------------------|-------------------|-------------------|-------------------|
-------------------|-------------------|-------------------|-------------------|
-------------------|-------------------|-------------------|-------------------|


  W                   W                   W                   W                 
-------------------|-------------------|-------------------|-------------------|
-------------------|-------------------|-------------------|-------------------|
-------------------|-------------------|-------------------|-------------------|
-------------------|-------------------|-------------------|-------------------|
-------------------|-------------------|-------------------|-------------------|
-------------------|-------------------|-------------------|-------------------|


  W                   W                   W                   W                 
-------------------|-------------------|-------------------|-------------------|
-------------------|-------------------|-------------------|-------------------|
-------------------|-------------------|-------------------|-------------------|
-------------------|-------------------|-------------------|-------------------|
-------------------|-------------------|-------------------|-------------------|
-------------------|-------------------|-------------------|-------------------|


  W                   W                   W                   W                 
-------------------|-------------------|-------------------|-------------------|
-------------------|-------------------|-------------------|-------------------|
-------------------|-------------------|-------------------|-------------------|
-------------------|-------------------|-------------------|-------------------|
-------------------|-------------------|-------------------|-------------------|
-------------------|-------------------|-------------------|-------------------|


  W                   W                   W                   W                 
-------------------|-------------------|-------------------|-------------------|
-------------------|-------------------|-------------------|-------------------|
-------------------|-------------------|-------------------|-------------------|
-------------------|-------------------|-------------------|-------------------|
-------------------|-------------------|-------------------|-------------------|
-------------------|-------------------|-------------------|-------------------|


  W                   W                   W                   W                 
-------------------|-------------------|-------------------|-------------------|
-------------------|-------------------|-------------------|-------------------|
-------------------|-------------------|-------------------|-------------------|
-------------------|-------------------|-------------------|-------------------|
-------------------|-------------------|-------------------|-------------------|
-------------------|-------------------|-------------------|-------------------|


  W                   W                   W                   W                 
-------------------|-------------------|-------------------|-------------------|
-------------------|-------------------|-------------------|-------------------|
-------------------|-------------------|-------------------|-------------------|
-------------------|-------------------|-------------------|-------------------|
-------------------|-------------------|-------------------|-------------------|
-------------------|-------------------|-------------------|-------------------|


  W                   W                   W                   W                 
-------------------|-------------------|-------------------|-------------------|
-------------------|-------------------|-------------------|-------------------|
-------------------|-------------------|-------------------|-------------------|
-------------------|-------------------|-------------------|-------------------|
-------------------|-------------------|-------------------|-------------------|
-------------------|-------------------|-------------------|-------------------|


  W                   W                   W                   W                 
-------------------|-------------------|-------------------|-------------------|
-------------------|-------------------|-------------------|-------------------|
-------------------|-------------------|-------------------|-------------------|
-------------------|-------------------|-------------------|-------------------|
-------------------|-------------------|-------------------|-------------------|
-------------------|-------------------|-------------------|-------------------|


  W                   W                   W                   W                 
-------------------|-------------------|-------------------|-------------------|
-------------------|-------------------|-------------------|-------------------|
-------------------|-------------------|-------------------|-------------------|
-------------------|-------------------|-------------------|-------------------|
-------------------|-------------------|-------------------|-------------------|
-------------------|-------------------|-------------------|-------------------|


  W                   W                   W                   W                 
-------------------|-------------------|-------------------|-------------------|
-------------------|-------------------|-------------------|-------------------|
-------------------|-------------------|-------------------|-------------------|
-------------------|-------------------|-------------------|-------------------|
-------------------|-------------------|-------------------|-------------------|
-------------------|-------------------|-------------------|-------------------|


  W                   W                   W                   W                 
-------------------|-------------------|-------------------|-------------------|
-------------------|-------------------|-------------------|-------------------|
-------------------|-------------------|-------------------|-------------------|
-------------------|-------------------|-------------------|-------------------|
-------------------|-------------------|-------------------|-------------------|
-------------------|-------------------|-------------------|-------------------|


  W                   W                   W                   W                 
-------------------|-------------------|-------------------|-------------------|
-------------------|-------------------|-------------------|-------------------|
-------------------|-------------------|-------------------|-------------------|
-------------------|-------------------|-------------------|-------------------|
-------------------|-------------------|-------------------|-------------------|
-------------------|-------------------|-------------------|-------------------|


  W                   W                   W                   W                 
-------------------|-------------------|-------------------|-------------------|
-------------------|-------------------|-------------------|-------------------|
-------------------|-------------------|-------------------|-------------------|
-------------------|-------------------|-------------------|-------------------|
-------------------|-------------------|-------------------|-------------------|
-------------------|-------------------|-------------------|-------------------|


  W                   W                   W                   W                 
-------------------|-------------------|-------------------|-------------------|
-------------------|-------------------|-------------------|-------------------|
-------------------|-------------------|-------------------|-------------------|
-------------------|-------------------|-------------------|-------------------|
-------------------|-------------------|-------------------|-------------------|
-------------------|-------------------|-------------------|-------------------|


  W                   W                  
-------------------|-------------------||
-------------------|-------------------||
-------------------|-------------------||
-------------------|-------------------||
-------------------|-------------------||
-------------------|-------------------||




Duration Legend
---------------
W - whole
H - half
Q - quarter
E - 8th
S - 16th
T - 32nd
X - 64th
. - note dotted
|-n-|  - n-tuplets


Tablature Legend
----------------
L - tied note
x - dead note
g - grace note
(n) - ghost note
> - accentuded note
NH - natural harmonic
AH - artificial harmonic
TH - tapped harmonic
SH - semi harmonic
PH - pitch harmonic
h - hammer on
p - pull off
b - bend
br - bendRelease
pb - preBend
pbr - preBendRelease
brb - bendReleaseBend
\n/ - tremolo bar dip
\n - tremolo bar dive
-/n - tremolo bar Release up
/n\ - tremolo bar inverted dip
/n - tremolo bar return
-\n - tremolo bar Release down
S - shift slide
s - legato slide
/ -  slide into from below or out of upwards
\ -  slide into from above or out of downwards
~ - vibrato
W - wide vibrato
tr - trill
TP - tremolo picking
T - tapping
S - slap
P - pop
< - fade in
^ - brush up
v - brush down
comments
We did not receive enough feedback on this tab! Please rate:
print report bad tab
1 2 3 4 5
I want to post or [tab]
guest
You may want to rate the tab now too:
select rating
Please do not post tabs as comments. Select "correction" instead!