Oops, an error
Loading. Please wait.

Any Fule Know That Tab

4,531 views 10 this week
1 commentread comment
1 2 3 4 5
excellent!
x 4
add to favorites launch autoscroll
font size
0
reset
Autoscroll
+/-
esc
set tempo
stop
Contributor
Difficulty
intermediate
WARNING: You are trying to view
                                    content from Ultimate-Guitar.com
                                    in an unauthorized application,
                                    which is prohibited.

                                    Please use an official Ultimate
                                    Guitar Tabs application for iPhone,
                                    iPad or Android to access legitimate
                                    chords, guitar, bass, and drum tabs
                                    from Ultimate-Guitar.com database.

                                    Type "ultimate guitar tabs" in Apple
                                    App Store's or Android Market's
                                    search to find the application.
Any Fule Know That Tab by Deep Purple
Tabbed by Mathias Braathen

E-||------------------------|----------------------|--------------------------|
B-||*-----------------------|----------------------|--------------------------|
G-||--7---------7-----------|----------------------|--------------------------|
D-||--7-x-x-x-x-7-----7-7-5-|-7-x-x-x-x-7-----0-10-|-7-x-x-x-x-7-----------5--|
A-||*-5-x-x-x-x-5-x-x-5-5-3-|-5-x-x-x-x-5-x-x-0--8-|-5-x-x-x-x-5-x-x-x-5-5-3--|
E-||------------------------|----------------------|--------------------------|

E-----------------|-------------------------|------------------------|---------|
B-----------------|-------------------------|------------------------|---------|
G-----------------|---7---------7-----------|------------------------|---------|
D-7---------7-----|---7-x-x-x-x-7-----7-7-5-|-7-x-x-x-x-7-------0-10-|-7-x-x-x-|
A-5-x-x-x-x-5-7-5-|---5-x-x-x-x-5-x-x-5-5-3-|-5-x-x-x-x-5-x-x-x-0--8-|-5-x-x-x-|
E-------------5-3-|-------------------------|------------------------|---------|

                                       Riff 2

E-----------------|------------------|----------------------------|-------------|
B-----------------|------------------|----------------------------|-------------|
G-----------------|------------------|----------------------------|-------------|
D-x-7-----------5-|-7---------7------|---4-2----------------------|-4-2---------|
A-x-5-x-x-x-5-5-3-|-5-x-x-x-x-5-7-2--|-------4-3-2-0--------0-x-x-|-----4-3-2-0-|
E-----------------|-------------5-0--|---------------2~-0-2---x-x-|-------------|

E--------------|--------------------------|----------------------------||-------|
B--------------|--------------------------|---------------------------*||-------|
G--------------|--------------------------|----------------------------||-------|
D--------------|-4-2----------------------|-----2-------4---2----------||-4-2---|
A----0-2---x-x-|-----4-3-2-0--------0-x-x-|-2-4---2/3-4---4---3-2-0---*||-----4-|
E-2~-----0-x-x-|-------------2~-0-2---x-x-|-------------------------2~-||-------|

E--------------------|--------------------------|--------------------------|---|
B--------------------|--------------------------|--------------------------|---|
G--------------------|--------------------------|--------------------------|---|
D--------------------|-4-2----------------------|-4-2----------------------|---|
A-3-2-0--------0-x-x-|-----4-3-2-0----0-2---x-x-|-----4-3-2-0--------0-x-x-|-2-|
E-------2~-0-2---x-x-|-------------2~-----0-x-x-|-------------2~-0-2---x-x-|---|

E--------------------------|-----0---0-------0---|---0-0-------------|-----0---|
B--------------------------|-----0-----0-3b4---0-|-------0-3b4--1--3-|-----0---|
G--------------------------|---------------------|--------------0--2-|---------|
D---2-------4---2----------|-2-------------------|-2-----------------|-2-------|
A-4---2/3-4---4---3-2-0----|-2-------------------|-2-----------------|-2-------|
E-----------------------2~-|-0-------------------|-0-----------------|-0-------|

E-0-------0-|-3p0-------0-0------------------|-----0---0-------0-0-|---0-0------|
B---0-3b4---|-----0-3b4-----3-0-0-0----------|-----0-----0-3b4-----|-------0--1-|
G-----------|-----------------------4--------|---------------------|----------0-|
D-----------|-----------------------4--------|-2-------------------|-2----------|
A-----------|-----------------------2--------|-2-------------------|-2----------|
E-----------|--------------------------------|-0-------------------|-0----------|

E----|-----0---0-------0-0-|-3p0-0-0-0-0-0---------|-----------------------|---|
B--3-|-----0-----0-3b4-----|-----0-0-0-0-0---------|-----------------------|---|
G--2-|---------------------|--------------------2--|-7---------7-----------|---|
D----|-2-------------------|-----------------5--2--|-7-x-x-x-x-7-----7-7-5-|-7-|
A----|-2-------------------|-----------------5--0--|-5-x-x-x-x-5-x-x-5-5-3-|-5-|
E----|-0-------------------|---------------0-3-----|-----------------------|---|

E--------------------|-------------------------|-----------------|-------------|
B--------------------|-------------------------|-----------------|-------------|
G--------------------|-------------------------|-----------------|---7---------|
D-x-x-x-x-7-----0-10-|-7-x-x-x-x-7-----------5-|-7---------7-----|---7-x-x-x-x-|
A-x-x-x-x-5-x-x-0--8-|-5-x-x-x-x-5-x-x-x-5-5-3-|-5-x-x-x-x-5-7-5-|---5-x-x-x-x-|
E--------------------|-------------------------|-------------5-3-|-------------|

E-------------|------------------------|-------------------------|-------------|
B-------------|------------------------|-------------------------|-------------|
G-7-----------|------------------------|-------------------------|-------------|
D-7-----7-7-5-|-7-x-x-x-x-7-------0-10-|-7-x-x-x-x-7-----------5-|-7---------7-|
A-5-x-x-5-5-3-|-5-x-x-x-x-5-x-x-x-0--8-|-5-x-x-x-x-5-x-x-x-5-5-3-|-5-x-x-x-x-5-|
E-------------|------------------------|-------------------------|-------------|

E------|----------------------------|--------------------------|----------------|
B------|----------------------------|--------------------------|----------------|
G------|----------------------------|--------------------------|----------------|
D------|---4-2----------------------|-4-2----------------------|-4-2------------|
A-7-2--|-------4-3-2-0--------0-x-x-|-----4-3-2-0----0-2---x-x-|-----4-3-2-0----|
E-5-0--|---------------2~-0-2---x-x-|-------------2~-----0-x-x-|-------------2~-|

E------------|---------------------------||---------------------------|---------|
B------------|---------------------------||*--------------------------|---------|
G------------|---------------------------||---------------------------|---------|
D------------|-----2-------4---2---------||--4-2----------------------|-4-2-----|
A------0-x-x-|-2-4---2/3-4---4---3-2-0---||*-----4-3-2-0--------0-x-x-|-----4-3-|
E--0-2---x-x-|-------------------------2~||--------------2~-0-2---x-x-|---------|

E------------------|--------------------------|-----------------------------|-|
B------------------|--------------------------|----------------------------*|-|
G------------------|--------------------------|-----------------------------|-|
D------------------|-4-2----------------------|-----2-------4---2-----------|-|
A-2-0----0-2---x-x-|-----4-3-2-0--------0-x-x-|-2-4---2/3-4---4---3-2-0----*|-|
E-----2~-----0-x-x-|-------------2~-0-2---x-x-|-------------------------2~--|-|

E-----0---0-------0---|---0-0-------------|-----0---0-------0-|-3p0-------0-0---|
B-----0-----0-3b4---0-|-------0-3b4--1--3-|-----0-----0-3b4---|-----0-3b4-----3-|
G---------------------|--------------0--2-|-------------------|-----------------|
D-2-------------------|-2-----------------|-2-----------------|-----------------|
A-2-------------------|-2-----------------|-2-----------------|-----------------|
E-0-------------------|-0-----------------|-0-----------------|-----------------|

E----------------|-----0---0-------0-0-|---0-0---------|-----0---0-------0-0--|
B-0-0-0----------|-----0-----0-3b4-----|-------0--1--3-|-----0-----0-3b4------|
G-------4--------|---------------------|----------0--2-|----------------------|
D-------4--------|-2-------------------|-2-------------|-2--------------------|
A-------2--------|-2-------------------|-2-------------|-2--------------------|
E----------------|-0-------------------|-0-------------|-0--------------------|

                          Organ Solo(With Verse Riff X1)

E-3p0-0-0-0-0-0---------|------------||---------------------------|-------------|
B-----0-0-0-0-0---------|------------||*--------------------------|-------------|
G--------------------2--|------------||---------------------------|-------------|
D-----------------5--2--|------------||--4-2----------------------|-4-2---------|
A-----------------5--0--|------------||*-----4-3-2-0--------0-x-x-|-----4-3-2-0-|
E---------------0-3-----|------------||--------------2~-0-2---x-x-|-------------|

                                                                       X4

E--------------|--------------------------|-----------------------------||--------|
B--------------|--------------------------|----------------------------*||--------|
G--------------|--------------------------|-----------------------------||--16b18-|
D--------------|-4-2----------------------|-----2-------4---2-----------||--------|
A----0-2---x-x-|-----4-3-2-0--------0-x-x-|-2-4---2/3-4---4---3-2-0----*||--------|
E-2~-----0-x-x-|-------------2~-0-2---x-x-|-------------------------2~--||--------|

E|----14----------14------------------|-14-------------------------------------|
B|-14----14-17b19----17b19------------|----17-14-------------------------------|
G|------------------------------------|----------17-16-15-14-------------------|
D|------------------------------------|----------------------16-15-14-------14-|
A|------------------------------------|-------------------------------15-16----|
E|------------------------------------|----------------------------------------|

E|-------------------------------------|-9--------------------------------------|
B|-------------------------------------|-9-7-----75----9b10-7-----{9}-{7}-{7}---|
G|-------------------------------------|-----9-6-----6---------9-6--------------|
D|-16-14-------------------------------|----------------------------------------|
A|-------15-14--------------{14}------|-----------------------------------------|
E|-------------17b18-------------------|----------------------------------------|

E|--------------------|--------------------------------------------------------|
B|-{9}-{9}-{9}----r7~-|-{7}b9--r5-0--------------------------------------------|
G|--------------------|-------------x-{2}~-------{1}-2---1b2-------------------|
D|--------------------|--------------------------------4-----4-----------------|
A|--------------------|----------------------0-----------------3-2-0-2---------|
E|--------------------|------------------------2-----------------------{2}~----|

             Insert

E|-----|---------------------------------------------------|-------------------|
B|-----|-------------------14b-----------------------------|-------------------|
G|-----|-------------------14b-11-------{11}-{13}b15-------|-------------------|
D|-----|----------------11--------13-11--------------------|----------11-12-13-|
A|-----|-------11-12-13------------------------------------|-11-12-13----------|
E|-----|--/-14---------------------------------------------|-------------------|

E|----------------------|---------------------------------------|------------------|
B|-14b------------------|-------14-------17----16----14b-----14|---17b-------17b---|
G|-14b-11----{11}~------|----------------17----16----14b-----14|---17b-14----17b---|
D|--------13-------{13}|----------16-14----------16------16----|----------16-------|
A|----------------------|-------------------14------------------|------------------|
E|----------------------|--/-14---------------------------------|------------------|

E|-----------------------------------|------------------------------------------|
B|----------14b----------16b----14~-|------14-------17----16----14b-------------|
G|----------14b----------16b----14~-|---------------17----16----14b--16b18------|
D|-14-15-16-----16-15-14-----16------|---------16-14----------16----------------|
A|-----------------------------------|------------------14----------------------|
E|-----------------------------------|--/14-------------------------------------|

E|---|----------------------|-------14-17-14-------14-17-14-------14~---------|--|
B|---|----------------------|-17b19----------17b19----------17b19-------------|--|
G|---|-13b15---11----11~11-|-------------------------------------------------|---|
D|---|------------13--------|-------------------------------------------------|--|
A|---|----------------------|-------------------------------------------------|--|
E|---|----------------------|-------------------------------------------------|--|

E|-14-------------------------------------------------------------|-------------|
B|----17-14----------------------14-17--r14-------14--------------|-------------|
G|----------17-16-15-14-15-16-17------------16b18----14-----------|-------14----|
D|------------------------------------------------------16~-------|-14-------14-|
A|----------------------------------------------------------------|----16-------|
E|----------------------------------------------------------------|-------------|

E|----------14-------14-------14------------------------|-22b26--19-21-17-19-----|
B|-------------17-14----17-19---17b19------------------|--------------------19---|
G|-16----17---------------------------------------------|------------------------|
D|----16------------------------------------------------|------------------------|
A|------------------------------------------------------|------------------------|
E|------------------------------------------------------|------------------------|

E|-------------------------------------------------------------------------|
B|----16-19p16----19b23---16----19b21-19b21-19b21-19b21-19b21-19b21-19b21--|
G|-18----------18------------18--------------------------------------------|
D|-------------------------------------------------------------------------|
A|-------------------------------------------------------------------------|
E|-------------------------------------------------------------------------|
comments
print report bad tab
1 comment total.
0 reply
rocker007 wrote on June 4 2006, 10:17 am

thanks ive been lookoing for this

I want to post or [tab]
guest
You may want to rate the tab now too:
select rating
Please do not post tabs as comments. Select "correction" instead!