Oops, an error
Loading. Please wait.

Bad Attitude Tab

ver1
ver1

Whole song

Interactive

More versions @911Tabs.com
2,374 views 6 this week
1 commentread comment
1 2 3 4 5
accurate
x 1
Autoscroll
+/-
esc
set tempo
stop
Hey! There's an official Ultimate Guitar app which is ideal
for learning songs when you're away from computer. Get the app
WARNING: You are trying to view
                                    content from Ultimate-Guitar.com
                                    in an unauthorized application,
                                    which is prohibited.

                                    Please use an official Ultimate
                                    Guitar Tabs application for iPhone,
                                    iPad or Android to access legitimate
                                    chords, guitar, bass, and drum tabs
                                    from Ultimate-Guitar.com database.

                                    Type "ultimate guitar tabs" in Apple
                                    App Store's or Android Market's
                                    search to find the application.
Band: Deep Purple
Song: Bad Attitude
Album: House Of Blue Light





Guitar 1:




     W                   W                   W                 
E||-------------------|-------------------|-------------------|
B||-------------------|-------------------|-------------------|
G||-------------------|-------------------|-------------------|
D||-------------------|-------------------|-------------------|
A||-------------------|-------------------|-------------------|
E||-------------------|-------------------|-------------------|


  W                   W                   W                   W                 
-------------------|-------------------|-------------------|-------------------|
-------------------|-------------------|-------------------|-------------------|
-------------------|-------------------|-------------------|-------------------|
-------------------|-------------------|-------------------|-------------------|
-------------------|-------------------|-------------------|-------------------|
-------------------|-------------------|-------------------|-------------------|


  W                   W                   W                 
-------------------|-------------------|-------------------|
-------------------|-------------------|-------------------|
-------------------|-------------------|-------------------|
-------------------|-------------------|-------------------|
-------------------|-------------------|-------------------|
-------------------|-------------------|-------------------|


  E  Q      E   H           W                   E  Q      E   H         
-------------------------|-------------------|-------------------------|
-------------------------|-------------------|-------------------------|
-------------------------|-------------------|-------------------------|
--9--9S----(0)-----------|-------------------|--9--9S----(0)-----------|
--9--9S----(0)-----------|-------------------|--9--9S----(0)-----------|
--7--7S----(0)-----------|-------------------|--7--7S----(0)-----------|


  W                     E  E  E  E  E  E  E  E      Q     E   E  H         
-------------------||----------------------------|------------------------|
-------------------||----------------------------|------------------------|
-------------------||*-----------7--7------------|------------------------|
-------------------||*--9--9-----7--7-----9--9S--|--L----(x)--------------|
-------------------||---9--9-----5--5-----9--9S--|--L----(x)--------------|
-------------------||---7--7--------------7--7S--|--L----(x)--------------|


  E  E  E  E  E  E  E  E      Q    Q    H           E  E  E  E  E  E  E  E   
---------------------------|---------------------|--------------------------|
---------------------------|---------------------|--------------------------|
-----------7--7------------|---------------------|--4--4-----6--6-----1--1--|
--9--9-----7--7-----9--9S--|--L------------------|--5--5-----7--7-----2--2--|
--9--9-----5--5-----9--9S--|--L------------------|--5--5-----7--7-----2--2--|
--7--7--------------7--7S--|--L------------------|--3--3-----5--5-----0--0--|


  Q    Q    H           E  E  E  E  E  E  E  E      Q     E   E  H         
---------------------|---------------------------|------------------------|
---------------------|---------------------------|------------------------|
--L------------------|-----------7--7------------|------------------------|
--L------------------|--9--9-----7--7-----9--9S--|--L----(x)--------------|
--L------------------|--9--9-----5--5-----9--9S--|--L----(x)--------------|
--L------------------|--7--7--------------7--7S--|--L----(x)--------------|


  E  E  E  E  E  E  E  E      Q     E   E  H         
---------------------------|------------------------|
---------------------------|------------------------|
-----------7--7------------|------------------------|
--9--9-----7--7-----9--9S--|--L----(x)--------------|
--9--9-----5--5-----9--9S--|--L----(x)--------------|
--7--7--------------7--7S--|--L----(x)--------------|


  E  E  E  E  E  E  E  E      Q    Q    H           E  E  E  E  E  E  E  E   
---------------------------|---------------------|--------------------------|
---------------------------|---------------------|--------------------------|
-----------7--7------------|---------------------|--4--4-----6--6-----1--1--|
--9--9-----7--7-----9--9S--|--L------------------|--5--5-----7--7-----2--2--|
--9--9-----5--5-----9--9S--|--L------------------|--5--5-----7--7-----2--2--|
--7--7--------------7--7S--|--L------------------|--3--3-----5--5-----0--0--|


  Q    Q    H           E  E  E  E  E  E  E  E     W                 
---------------------|--------------------------|-------------------|
---------------------|--------------------------|-------------------|
--L------------------|-----------7--7-----9--9--|--L----------------|
--L------------------|--9--9-----7--7-----9--9--|--L----------------|
--L------------------|--9--9-----5--5-----7--7--|--L----------------|
--L------------------|--7--7--------------------|-------------------|


  W                   W                   W                 
-------------------|-------------------|-------------------|
-------------------|-------------------|-------------------|
-------------------|-------------------|-------------------|
-------------------|-------------------|-------------------|
-------------------|-------------------|-------------------|
-------------------|-------------------|-------------------|


  E  E  E  E  E  E  E  E     E  E  E  E  E   E  E   E   
--------------------------|----------------------------|
--------------------------|----------------------------|
--4--4-----7--7-----6--6--|--------------2p--1--2p--1--|
--4--4-----7--7-----7--7--|-----2--2-----2------2------|
--2--2-----5--5-----4--4--|-----2--2-------------------|
--------------------------|-----0--0-------------------|


  E  E  E  E  E  E  E  E     H        E  E  Q       E  E  E  E  E  E  E  E   
--------------------------|----------------------|--------------------------|
--------------------------|----------------------|--------------------------|
--4--4-----7--7-----9--9--|--L-----------9-------|--4--4-----7--7-----6--6--|
--4--4-----7--7-----9--9--|--L-----------9-------|--4--4-----7--7-----7--7--|
--2--2-----5--5-----7--7--|--L-----------7-------|--2--2-----5--5-----4--4--|
--------------------------|----------------------|--------------------------|


  E  E  E  E  E   E  E   E     E  E  E  E  E  E  E  E     W                 
----------------------------|--------------------------|-------------------|
----------------------------|--------------------------|-------------------|
--------------2p--1--2p--1--|--4--4-----7--7-----7--9--|--L----------------|
-----2--2-----2------2------|--4--4-----7--7-----7--9--|--L----------------|
-----2--2-------------------|--2--2-----5--5-----5--7--|--L----------------|
-----0--0-------------------|--------------------------|-------------------|


  W                     E  E  E  E  E  E  E  E     H        E  E  E  E   
--------------------||--------------------------|-----------------------|
--------------------||--------------------------|-----------------------|
--L----------------*||--4--4-----7--7-----7--9--|--L-----------9-----9--|
--L----------------*||--4--4-----7--7-----7--9--|--L-----------9-----9--|
--L-----------------||--2--2-----5--5-----5--7--|--L-----------7-----7--|
--------------------||--------------------------|-----------------------|


  E  E  E  E  E  E  E  E     E  E  E  E  E   E  E   E   
--------------------------|----------------------------|
--------------------------|----------------------------|
--4--4-----7--7-----6--6--|--------------2p--1--2p--1--|
--4--4-----7--7-----7--7--|-----2--2-----2------2------|
--2--2-----5--5-----4--4--|-----2--2-------------------|
--------------------------|-----0--0-------------------|


  E  E  E  E  E  E  E  E     H        E  E  Q       E  E  E  E  E  E  E  E   
--------------------------|----------------------|--------------------------|
--------------------------|----------------------|--------------------------|
--4--4-----7--7-----9--9--|--L-----------9-------|--4--4-----7--7-----6--6--|
--4--4-----7--7-----9--9--|--L-----------9-------|--4--4-----7--7-----7--7--|
--2--2-----5--5-----7--7--|--L-----------7-------|--2--2-----5--5-----4--4--|
--------------------------|----------------------|--------------------------|


  E  E  E  E  E   E  E   E     E  E  E  E  E  E  E  E   
----------------------------|--------------------------|
----------------------------|--------------------------|
--------------2p--1--2p--1--|--4--4-----7--7-----7--9--|
-----2--2-----2------2------|--4--4-----7--7-----7--9--|
-----2--2-------------------|--2--2-----5--5-----5--7--|
-----0--0-------------------|--------------------------|


  H        E   E  E  E       Q    Q    E  Q.        E  E   E  E  E  E  Q      
-----------4p--2----------|----------------------|---------------------------|
------------------5-------|------------5--5------|--5--3p--2-----5-----------|
--L------------------4b~--|--L----L--------------|------------4--------2b----|
--L-----------------------|----------------------|------------------2--------|
--L-----------------------|----------------------|---------------------------|
--------------------------|----------------------|---------------------------|


  Q    E  E  S  S E  E   E     E  E  E  E  E  E  E  E   
----------------------------|--------------------------|
-------0--------------------|--------------------------|
--L-------0-----------------|--4-----------------------|
-------------2p-0----2S--6--|-----6--5--4--L--2--4-----|
------------------2---------|-----------------------5--|
----------------------------|--------------------------|


  Q      E  E  Q        E  E     E  E   Q     E  E   E   E   
------------------------------|-----0------------0----------|
------------------------------|--------10b----L-----10--10--|
---------------------------9--|--L--------------------------|
------------7--L----10g11-----|-----------------------------|
--4----8g9--------------------|-----------------------------|
------------------------------|-----------------------------|


                          |--3--|                            
   Q       E   E   E  E   S  S  S E     Q      H.            
-----------0-------------------------|----------------------|
--10pbr-------10--10--8p--7h-8p-7----|----------------------|
----------------------------------9--|--9b~----L------------|
-------------------------------------|----------------------|
-------------------------------------|----------------------|
-------------------------------------|----------------------|


  W                   E  E  Q    E  E  Q       E  E  E  E  S  S E  S  S E   
-------------------|------------------------|------------------------------|
-------------------|------------------------|------------------------------|
--L----------------|------------------------|------------------------------|
-------------------|--------4----------4----|-------------------2----------|
-------------------|------------------------|--------0--2--2h-4----4p-2-0--|
-------------------|--0--2-------0--2-------|-----2------------------------|


  W                   W                   W                   W                 
-------------------|-------------------|-------------------|-------------------|
-------------------|-------------------|-------------------|-------------------|
-------------------|-------------------|-------------------|-------------------|
-------------------|-------------------|-------------------|-------------------|
-------------------|-------------------|-------------------|-------------------|
-------------------|-------------------|-------------------|-------------------|


  W                   W                   W                   W                 
-------------------|-------------------|-------------------|-------------------|
-------------------|-------------------|-------------------|-------------------|
-------------------|-------------------|-------------------|-------------------|
-------------------|-------------------|-------------------|-------------------|
-------------------|-------------------|-------------------|-------------------|
-------------------|-------------------|-------------------|-------------------|


  W                   W                   W                   W                 
-------------------|-------------------|-------------------|-------------------|
-------------------|-------------------|-------------------|-------------------|
-------------------|-------------------|-------------------|-------------------|
-------------------|-------------------|-------------------|-------------------|
-------------------|-------------------|-------------------|-------------------|
-------------------|-------------------|-------------------|-------------------|


  W                   W                   W                   W                 
-------------------|-------------------|-------------------|-------------------|
-------------------|-------------------|-------------------|-------------------|
-------------------|-------------------|-------------------|-------------------|
-------------------|-------------------|-------------------|-------------------|
-------------------|-------------------|-------------------|-------------------|
-------------------|-------------------|-------------------|-------------------|


  W                   E  E  E  E  E  E  E  E     E  E  E  E  E   E  E   E   
-------------------|--------------------------|----------------------------|
-------------------|--------------------------|----------------------------|
-------------------|--4--4-----7--7-----6--6--|--------------2p--1--2p--1--|
-------------------|--4--4-----7--7-----7--7--|-----2--2-----2------2------|
-------------------|--2--2-----5--5-----4--4--|-----2--2-------------------|
-------------------|--------------------------|-----0--0-------------------|


  E  E  E  E  E  E  E  E     H        E  E  Q       E  E  E  E  E  E  E  E   
--------------------------|----------------------|--------------------------|
--------------------------|----------------------|--------------------------|
--4--4-----7--7-----9--9--|--L-----------9-------|--4--4-----7--7-----6--6--|
--4--4-----7--7-----9--9--|--L-----------9-------|--4--4-----7--7-----7--7--|
--2--2-----5--5-----7--7--|--L-----------7-------|--2--2-----5--5-----4--4--|
--------------------------|----------------------|--------------------------|


  E  E  E  E  E   E  E   E     E  E  E  E  E  E  E  E     H        E  E  E  E   
----------------------------|--------------------------|-----------------------|
----------------------------|--------------------------|-----------------------|
--------------2p--1--2p--1--|--4--4-----7--7-----7--9--|--L-----------9-----9--|
-----2--2-----2------2------|--4--4-----7--7-----7--9--|--L-----------9-----9--|
-----2--2-------------------|--2--2-----5--5-----5--7--|--L-----------7-----7--|
-----0--0-------------------|--------------------------|-----------------------|


  E  E  E  E  E  E  E  E     E  E  E  E  E   E  E   E   
--------------------------|----------------------------|
--------------------------|----------------------------|
--4--4-----7--7-----6--6--|--------------2p--1--2p--1--|
--4--4-----7--7-----7--7--|-----2--2-----2------2------|
--2--2-----5--5-----4--4--|-----2--2-------------------|
--------------------------|-----0--0-------------------|


  E  E  E  E  E  E  E  E     H        E  E  Q       E  E  E  E  E  E  E  E   
--------------------------|----------------------|--------------------------|
--------------------------|----------------------|--------------------------|
--4--4-----7--7-----9--9--|--L-----------9-------|--4--4-----7--7-----6--6--|
--4--4-----7--7-----9--9--|--L-----------9-------|--4--4-----7--7-----7--7--|
--2--2-----5--5-----7--7--|--L-----------7-------|--2--2-----5--5-----4--4--|
--------------------------|----------------------|--------------------------|


  E  E  E  E  E   E  E   E     E  E  E  E  E  E  E  E     H        E  Q.      
----------------------------|--------------------------|---------------------|
----------------------------|--------------------------|---------------------|
--------------2p--1--2p--1--|--4--4-----7--7-----7--9--|--L-----------9------|
-----2--2-----2------2------|--4--4-----7--7-----7--9--|--L-----------9------|
-----2--2-------------------|--2--2-----5--5-----5--7--|--L-----------7------|
-----0--0-------------------|--------------------------|---------------------|


  W                   W                   W                   W                 
-------------------|-------------------|-------------------|-------------------|
-------------------|-------------------|-------------------|-------------------|
-------------------|-------------------|-------------------|-------------------|
-------------------|-------------------|-------------------|-------------------|
-------------------|-------------------|-------------------|-------------------|
-------------------|-------------------|-------------------|-------------------|


  W                   W                   W                   W                 
-------------------|-------------------|-------------------|-------------------|
-------------------|-------------------|-------------------|-------------------|
-------------------|-------------------|-------------------|-------------------|
-------------------|-------------------|-------------------|-------------------|
-------------------|-------------------|-------------------|-------------------|
-------------------|-------------------|-------------------|-------------------|


  W                   W                   W                 
-------------------|-------------------|-------------------|
-------------------|-------------------|-------------------|
-------------------|-------------------|-------------------|
-------------------|-------------------|-------------------|
-------------------|-------------------|-------------------|
-------------------|-------------------|-------------------|


  W                  
-------------------||
-------------------||
-------------------||
-------------------||
-------------------||
-------------------||










Guitar 2:



     W                   W                   W                 
E||-------------------|-------------------|-------------------|
B||-------------------|-------------------|-------------------|
G||-------------------|-------------------|-------------------|
D||-------------------|-------------------|-------------------|
A||-------------------|-------------------|-------------------|
E||-------------------|-------------------|-------------------|


  W                   W                   W                   W                 
-------------------|-------------------|-------------------|-------------------|
-------------------|-------------------|-------------------|-------------------|
-------------------|-------------------|-------------------|-------------------|
-------------------|-------------------|-------------------|-------------------|
-------------------|-------------------|-------------------|-------------------|
-------------------|-------------------|-------------------|-------------------|


  W                   W                   W                   W                 
-------------------|-------------------|-------------------|-------------------|
-------------------|-------------------|-------------------|-------------------|
-------------------|-------------------|-------------------|-------------------|
-------------------|-------------------|-------------------|-------------------|
-------------------|-------------------|-------------------|-------------------|
-------------------|-------------------|-------------------|-------------------|


  W                   W                   W                 
-------------------|-------------------|-------------------|
-------------------|-------------------|-------------------|
-------------------|-------------------|-------------------|
-------------------|-------------------|-------------------|
-------------------|-------------------|-------------------|
-------------------|-------------------|-------------------|


    W                   W                   W                 
|--------------------|-------------------|-------------------|
|--------------------|-------------------|-------------------|
|*-------------------|-------------------|-------------------|
|*-------------------|-------------------|-------------------|
|--------------------|-------------------|-------------------|
|--------------------|-------------------|-------------------|


  W                   W                   W                   W                 
-------------------|-------------------|-------------------|-------------------|
-------------------|-------------------|-------------------|-------------------|
-------------------|-------------------|-------------------|-------------------|
-------------------|-------------------|-------------------|-------------------|
-------------------|-------------------|-------------------|-------------------|
-------------------|-------------------|-------------------|-------------------|


  W                   W                   W                   W                 
-------------------|-------------------|-------------------|-------------------|
-------------------|-------------------|-------------------|-------------------|
-------------------|-------------------|-------------------|-------------------|
-------------------|-------------------|-------------------|-------------------|
-------------------|-------------------|-------------------|-------------------|
-------------------|-------------------|-------------------|-------------------|


  W                   W                   W                   W                 
-------------------|-------------------|-------------------|-------------------|
-------------------|-------------------|-------------------|-------------------|
-------------------|-------------------|-------------------|-------------------|
-------------------|-------------------|-------------------|-------------------|
-------------------|-------------------|-------------------|-------------------|
-------------------|-------------------|-------------------|-------------------|


  W                   W                   W                   W                 
-------------------|-------------------|-------------------|-------------------|
-------------------|-------------------|-------------------|-------------------|
-------------------|-------------------|-------------------|-------------------|
-------------------|-------------------|-------------------|-------------------|
-------------------|-------------------|-------------------|-------------------|
-------------------|-------------------|-------------------|-------------------|


  W                   W                   W                   W                 
-------------------|-------------------|-------------------|-------------------|
-------------------|-------------------|-------------------|-------------------|
-------------------|-------------------|-------------------|-------------------|
-------------------|-------------------|-------------------|-------------------|
-------------------|-------------------|-------------------|-------------------|
-------------------|-------------------|-------------------|-------------------|


  W                   W                   W                   W                 
-------------------|-------------------|-------------------|-------------------|
-------------------|-------------------|-------------------|-------------------|
-------------------|-------------------|-------------------|-------------------|
-------------------|-------------------|-------------------|-------------------|
-------------------|-------------------|-------------------|-------------------|
-------------------|-------------------|-------------------|-------------------|


  W                     W                   W                 
--------------------||-------------------|-------------------|
--------------------||-------------------|-------------------|
-------------------*||-------------------|-------------------|
-------------------*||-------------------|-------------------|
--------------------||-------------------|-------------------|
--------------------||-------------------|-------------------|


  W                   W                   W                   W                 
-------------------|-------------------|-------------------|-------------------|
-------------------|-------------------|-------------------|-------------------|
-------------------|-------------------|-------------------|-------------------|
-------------------|-------------------|-------------------|-------------------|
-------------------|-------------------|-------------------|-------------------|
-------------------|-------------------|-------------------|-------------------|


  W                   W                   W                   W                 
-------------------|-------------------|-------------------|-------------------|
-------------------|-------------------|-------------------|-------------------|
-------------------|-------------------|-------------------|-------------------|
-------------------|-------------------|-------------------|-------------------|
-------------------|-------------------|-------------------|-------------------|
-------------------|-------------------|-------------------|-------------------|


  W                   W                   W                   W                 
-------------------|-------------------|-------------------|-------------------|
-------------------|-------------------|-------------------|-------------------|
-------------------|-------------------|-------------------|-------------------|
-------------------|-------------------|-------------------|-------------------|
-------------------|-------------------|-------------------|-------------------|
-------------------|-------------------|-------------------|-------------------|


  W                   W                   W                   W                 
-------------------|-------------------|-------------------|-------------------|
-------------------|-------------------|-------------------|-------------------|
-------------------|-------------------|-------------------|-------------------|
-------------------|-------------------|-------------------|-------------------|
-------------------|-------------------|-------------------|-------------------|
-------------------|-------------------|-------------------|-------------------|


  W                   W                   W                 
-------------------|-------------------|-------------------|
-------------------|-------------------|-------------------|
-------------------|-------------------|-------------------|
-------------------|-------------------|-------------------|
-------------------|-------------------|-------------------|
-------------------|-------------------|-------------------|


  W                     E   E   E  E  H           E   E  E  E  E   E  Q     
---------------------|-------------------------|---------------------------|
---------------------|-------------------------|---------------------------|
--2br----------------|-------------------------|---------2--4--4b--L--4----|
---------------------|--4p--2p--0--2--L--------|--2S--4--------------------|
---------------------|-------------------------|---------------------------|
---------------------|-------------------------|---------------------------|


  E  S  S  Q    Q.      E       Q    E  E   S S  E  S S  E   
-----------------------------|----------7-------------------|
--5--3h-5p-3-----------10br--|--L----L-----10-8p-7--7-------|
----------------4------------|------------------------9p-7--|
-----------------------------|------------------------------|
-----------------------------|------------------------------|
-----------------------------|------------------------------|


   Q      E  S  S  S S  S   S  Q        
--10br----L--9p-7----7-----------------|
------------------10---10S-12-12br~----|
---------------------------------------|
---------------------------------------|
---------------------------------------|
---------------------------------------|


        |---3---|   |---3--|   |---3--|                          
  Q     E   E   E   E   E  E   E   E  E     Q    E  E  H         
-------10--------------------------------|----------------------|
--L--------12----------------------------|----------------------|
---------------10p--9---------11S--7-----|----------------------|
-----------------------12--9----------9--|-------7--9--L--------|
-----------------------------------------|--9-------------------|
-----------------------------------------|----------------------|


     E   E   E   E   H            E   E   E   E   Q.        E   
----------------10------------|--13--14------13------------12--|
--------10--12------12--------|----------15------14br----------|
--xg11------------------------|--------------------------------|
------------------------------|--------------------------------|
------------------------------|--------------------------------|
------------------------------|--------------------------------|


   E   E   E   E     E  Q.         S  S  S  S S  T   T  S  S  S   S  E  Q     
-------------------------------|---------------------------------------------|
--15--14--12-------------------|--12-----------------------------------------|
--------------14br~--L--L------|-----14-12-11-L-12p-11----11-----------------|
-------------------------------|-----------------------14----12p-11----------|
-------------------------------|------------------------------------14--L----|
-------------------------------|---------------------------------------------|


   E   E   E   E   E   E   E   E      E   E   E   E   E   E   E    E   
----------------------------------|-------------------------------17--|
----------------------------------|----------12----------15--17b------|
------11------11--12--11------11--|--12--14------14--16---------------|
--12------14--------------14------|-----------------------------------|
----------------------------------|-----------------------------------|
----------------------------------|-----------------------------------|


      release only                                                          
                           |----3----|                                      
  E   E            E   E   E    E    E   S  S  E     E  H         Q     E   
--L-----------------------------------------------|------------------------|
-----17br---------15--17--15p--14h--15--14----12--|--L--L--------------12--|
-------------------------------------------14-----|--------------14--------|
--------------------------------------------------|------------------------|
--------------------------------------------------|------------------------|
--------------------------------------------------|------------------------|


   H.             Q        W                   W                 
-----------------17b----|-------------------|-------------------|
------------------------|-------------------|-------------------|
--14b-------------------|-------------------|-------------------|
------------------------|-------------------|-------------------|
------------------------|-------------------|-------------------|
------------------------|-------------------|-------------------|


  W                   W                   W                   W                 
-------------------|-------------------|-------------------|-------------------|
-------------------|-------------------|-------------------|-------------------|
-------------------|-------------------|-------------------|-------------------|
-------------------|-------------------|-------------------|-------------------|
-------------------|-------------------|-------------------|-------------------|
-------------------|-------------------|-------------------|-------------------|


  W                   W                   W                   W                 
-------------------|-------------------|-------------------|-------------------|
-------------------|-------------------|-------------------|-------------------|
-------------------|-------------------|-------------------|-------------------|
-------------------|-------------------|-------------------|-------------------|
-------------------|-------------------|-------------------|-------------------|
-------------------|-------------------|-------------------|-------------------|


  W                   W                   W                   W                 
-------------------|-------------------|-------------------|-------------------|
-------------------|-------------------|-------------------|-------------------|
-------------------|-------------------|-------------------|-------------------|
-------------------|-------------------|-------------------|-------------------|
-------------------|-------------------|-------------------|-------------------|
-------------------|-------------------|-------------------|-------------------|


  W                   W                   W                   W                 
-------------------|-------------------|-------------------|-------------------|
-------------------|-------------------|-------------------|-------------------|
-------------------|-------------------|-------------------|-------------------|
-------------------|-------------------|-------------------|-------------------|
-------------------|-------------------|-------------------|-------------------|
-------------------|-------------------|-------------------|-------------------|


  W                   W                   W                   W                 
-------------------|-------------------|-------------------|-------------------|
-------------------|-------------------|-------------------|-------------------|
-------------------|-------------------|-------------------|-------------------|
-------------------|-------------------|-------------------|-------------------|
-------------------|-------------------|-------------------|-------------------|
-------------------|-------------------|-------------------|-------------------|


  W                   W                   W                   W                 
-------------------|-------------------|-------------------|-------------------|
-------------------|-------------------|-------------------|-------------------|
-------------------|-------------------|-------------------|-------------------|
-------------------|-------------------|-------------------|-------------------|
-------------------|-------------------|-------------------|-------------------|
-------------------|-------------------|-------------------|-------------------|


  W                   W                  
-------------------|-------------------||
-------------------|-------------------||
-------------------|-------------------||
-------------------|-------------------||
-------------------|-------------------||
-------------------|-------------------||




Duration Legend
---------------
W - whole
H - half
Q - quarter
E - 8th
S - 16th
T - 32nd
X - 64th
. - note dotted
|-n-|  - n-tuplets


Tablature Legend
----------------
L - tied note
x - dead note
g - grace note
(n) - ghost note
> - accentuded note
NH - natural harmonic
AH - artificial harmonic
TH - tapped harmonic
SH - semi harmonic
PH - pitch harmonic
h - hammer on
p - pull off
b - bend
br - bendRelease
pb - preBend
pbr - preBendRelease
brb - bendReleaseBend
\n/ - tremolo bar dip
\n - tremolo bar dive
-/n - tremolo bar Release up
/n\ - tremolo bar inverted dip
/n - tremolo bar return
-\n - tremolo bar Release down
S - shift slide
s - legato slide
/ -  slide into from below or out of upwards
\ -  slide into from above or out of downwards
~ - vibrato
W - wide vibrato
tr - trill
TP - tremolo picking
T - tapping
S - slap
P - pop
< - fade in
^ - brush up
v - brush down
comments
We did not receive enough feedback on this tab! Please rate:
print report bad tab
1 2 3 4 5
1 comment total.
0 reply
Marius Vingis wrote on March 13 2009, 10:13 am

There is much mistakes on solos!Correnct them please!By the way intro is good !!! ;D

I want to post or [tab]
guest
You may want to rate the tab now too:
select rating
Please do not post tabs as comments. Select "correction" instead!