Oops, an error
Loading. Please wait.

Black And White Tab

851 views 1 this week
no commentswrite comment
1 2 3 4 5
please rate
add to favorites launch autoscroll
font size
0
reset
Autoscroll
+/-
esc
set tempo
stop
WARNING: You are trying to view
                                    content from Ultimate-Guitar.com
                                    in an unauthorized application,
                                    which is prohibited.

                                    Please use an official Ultimate
                                    Guitar Tabs application for iPhone,
                                    iPad or Android to access legitimate
                                    chords, guitar, bass, and drum tabs
                                    from Ultimate-Guitar.com database.

                                    Type "ultimate guitar tabs" in Apple
                                    App Store's or Android Market's
                                    search to find the application.
Band: Deep Purple
Song: Black and White
Album: House Of The Blue Light




Guitar 1



     W                   W                   E     E  E   E   H          
E||-------------------|-------------------|-----------8--10--10b--------|
B||-------------------|-------------------|-----8g10--------------------|
G||-------------------|-------------------|-----------------------------|
D||-------------------|-------------------|-----------------------------|
A||-------------------|-------------------|-----------------------------|
E||-------------------|-------------------|-----------------------------|


  Q     Q.       S  S  Q       Q.     E  H           Q.     Q.      Q      
--L----10br------8----------|---------8-----------|---------5-------5-----|
-------------------10--L----|--L------------------|---------8b------8b----|
----------------------------|---------------------|-----------------------|
----------------------------|---------------------|-----------------------|
----------------------------|---------------------|-----------------------|
----------------------------|---------------------|-----------------------|


  E     E  H        Q       W                   W                 
-------------------------|-------------------|-------------------|
--8pbr--5--L-------------|-------------------|-------------------|
-------------------------|-------------------|-------------------|
-------------------------|-------------------|-------------------|
-------------------------|-------------------|-------------------|
-------------------------|-------------------|-------------------|


  W                   H         H             E      S  S H        E   E    
-------------------|----------------------|--------------------------------|
-------------------|-----------17---------|---------------------------17S--|
-------------------|-----------19b--------|--19pbr--17----------------17S--|
-------------------|----------------------|------------19-L--------L-------|
-------------------|----------------------|--------------------------------|
-------------------|----------------------|--------------------------------|


  Q    Q    H           W                   W                 
---------------------|-------------------|-------------------|
--L------------------|-------------------|-------------------|
--L------------------|-------------------|-------------------|
---------------------|-------------------|-------------------|
---------------------|-------------------|-------------------|
---------------------|-------------------|-------------------|


  W                   H        Q.     E     Q    S S Q.      Q     
-------------------|------------------8--|--8----5---5S-----------|
-------------------|------------------5--|--5----5---5S-----------|
-------------------|---------------------|------------------------|
-------------------|---------------------|------------------------|
-------------------|---------------------|------------------------|
-------------------|---------------------|------------------------|


   Q    S S Q.      Q       E  E  E  E  H           E  E  E  E  E  E  E  E   
-------------------------|-----------------------|--------------------------|
-------------------------|-----------------------|--------------------------|
-------------------------|-----------------------|--------------------------|
--10----7---7S-----------|-----------------------|--------------5-----------|
---7----7---7S-----------|-----5--7--8-----------|-----8--7--8-----7--5-----|
-------------------------|--------------6--------|-----------------------8--|


  E  E  E  E  E  E  E  E     W                    E  E  E  E  H         
--------------------------|--------------------|-----------------------|
--------------------------|--------------------|-----------------------|
--------------------------|--------------------|-----------------------|
--------------8--7--5-----|--5~----------------|-----------------------|
--5--5--7--8-----------8--|--------------------|-----5--7--8-----------|
--------------------------|--------------------|--------------6--------|


  H        H           H        Q.      E     Q      S  S  E   Q    Q     
--------------------|----------------------|--8b-------------------------|
--------------------|------------------10--|--------10p-8-10S--L---------|
--------------------|-------------------9--|--9------9-----9S--L---------|
--------------------|----------------------|-----------------------------|
--------------------|----------------------|-----------------------------|
--3--------0--------|----------------------|-----------------------------|


  E  E  E  E  E  E  E  E     Q     S  S E  Q    Q       W                 
--------------------------|--------------------------|-------------------|
--------------------------|--------------------------|-------------------|
--------------------------|--5b----------------------|-------------------|
--7-----7-----7--7-----7--|--------7p-5-7--L---------|-------------------|
--7-----7-----7--7-----7--|--7-----7----7--L---------|-------------------|
--------------------------|--------------------------|-------------------|


  W                   W                   H        E  E   Q      
-------------------|-------------------|------------------------|
-------------------|-------------------|--------------8b--8b----|
-------------------|-------------------|------------------------|
-------------------|-------------------|------------------------|
-------------------|-------------------|------------------------|
-------------------|-------------------|------------------------|


  Q       E  E  E   E  E  E     W                   W                 
-----------------------------|-------------------|-------------------|
--8pbr----5------------------|-------------------|-------------------|
-------------7--5b-----5--7--|-------------------|-------------------|
--------------------7--------|-------------------|-------------------|
-----------------------------|-------------------|-------------------|
-----------------------------|-------------------|-------------------|


  W                   W                   W                 
-------------------|-------------------|-------------------|
-------------------|-------------------|-------------------|
-------------------|-------------------|-------------------|
-------------------|-------------------|-------------------|
-------------------|-------------------|-------------------|
-------------------|-------------------|-------------------|


  W                    E     S S H        Q       E  E  E  E  H         
--------------------|--------------------------|-----------------------|
--------------------|--------------------------|-----------------------|
--7b----------------|--7pbr--5-----------------|-----------------------|
--------------------|----------7-L-------------|-----------------------|
--------------------|--------------------------|-----5--7--8-----------|
--------------------|--------------------------|--------------6--------|


  E  E  E  E  E  E  Q        E  E  E  E  Q.     E     W                 
--------------------------|------------------------|-------------------|
--------------------------|------------------------|-------------------|
--------------------5~----|------------------------|-------------------|
--------------5-----------|---------------------5--|--L----------------|
-----8--7--8-----7--------|-----5--7--8------------|-------------------|
--------------------------|--------------6---------|-------------------|


  E  E  E  E  H           H        H           H         H         
-----------------------|--------------------|---------------------|
-----------------------|--------------------|---------------------|
-----------------------|--------------------|---------------------|
-----------------------|--------------------|--7~-----------------|
-----5--7--8-----------|--------------------|---------------------|
--------------6--------|--3--------0--------|---------------------|


  Q    E  E  Q       Q       W                   E  S E  S E   H         
--------------------------|-------------------|--8----8----5S--L--------|
--------------------------|-------------------|--5----5----5S--L--------|
--5-------5---------------|-------------------|-------------------------|
--5----7-----7pbr---------|-------------------|-------------------------|
--------------------------|-------------------|-------------------------|
--------------------------|-------------------|-------------------------|


  S S S S S E.  S S S S S S E     S S S S S E.  S S S S Q     
-------------------------------|-----------------------------|
-------------------------------|-----------------------------|
-------------------------------|-----------------------------|
-------------------------------|-----------------------------|
--6-5-3-5---3-----------5-3----|--6-5-3-5---3---------3------|
----------------0-3-5-5-----5--|----------------0-3-5---5----|


  S S S S S E.  S S S S S S E     S S S S S S E  S S E  S S E   
-------------------------------|-------------------------------|
-------------------------------|-------------------------------|
-------------------------------|-------------------------------|
-------------------------------|------------------------7-5----|
--6-5-3-5---3-----------5-3----|----------5-3----5-3--------7--|
----------------0-3-5-5-----5--|--3-0-3-0-----5------5---------|


  E  S S S S  S S S E   T T Q       S S  S S S S  S S H          
---------------------------------|------------------------------|
---------------------------------|------------------------------|
---------------------------------|------------------------------|
--5--3---3-5p-3---3-5p--3---5----|--5-5p-3---3-5p-3-------------|
-------5--------5---------5------|---------5--------5-3b--------|
---------------------------------|------------------------------|


  |--3--|  |-3|                                 |--3--|                  
  E  E  E  E  Q    E  S S S S E     S  S E  S S S  S  S S S S S S S S S  
---------------------------------|--------------------------------------|
---------------------------------|--------------------------------------|
---------------------------------|--------------------------------------|
----------------------0----------|----------------------------3-5-3---3-|
-----5--3--2--1---------1--------|-------1--3-1-3h-4p-3-1-3-5-------5---|
--------------------------3-2-1--|--1h-3--------------------------------|


  |-6-| |-6-| |-6-| |-6-| |-3-|    |--3--|           |----6---|    |-3-|       
  S S S S S S S S S S S S S S S E  E  E  E      Q    S S E  S S E  S S S Q     
---------------------------------------------|--------------------------------|
---------------------------------------------|--------------------------------|
---------------------------------------------|--------------------------------|
--5-4-5-4---4-------------------5--7--5--7S--|--9----7-9-7--5-7-5--7-9-7------|
----------7---5-7-5-5-4---5-4----------------|---------------------------7----|
------------------------7-----7--------------|--------------------------------|


  H         S S  S  S S S E      Q      E   S S S S  Q.       
-----------------------------|----------------------10-------|
------------5-5h-7p-5---5-5--|--10b----10p--8---8---13b------|
--7b------------------7------|----------------9--------------|
-----------------------------|-------------------------------|
-----------------------------|-------------------------------|
-----------------------------|-------------------------------|


  S  S S  S S  S  E  S  S  E  S  S  S S    W                 
----------------------------------------|-------------------|
----------------------------------------|-------------------|
------------------------------3p-2p-0-0-|-------------------|
---------------------3p-2p-0------------|-------------------|
------------3p-2p-0---------------------|-------------------|
--3p-0-1p-0-----------------------------|-------------------|


  W                   W                   W                   W                 
-------------------|-------------------|-------------------|-------------------|
-------------------|-------------------|-------------------|-------------------|
-------------------|-------------------|-------------------|-------------------|
-------------------|-------------------|-------------------|-------------------|
-------------------|-------------------|-------------------|-------------------|
-------------------|-------------------|-------------------|-------------------|


  W                   W                   W                   W                 
-------------------|-------------------|-------------------|-------------------|
-------------------|-------------------|-------------------|-------------------|
-------------------|-------------------|-------------------|-------------------|
-------------------|-------------------|-------------------|-------------------|
-------------------|-------------------|-------------------|-------------------|
-------------------|-------------------|-------------------|-------------------|


  W                   W                   W                 
-------------------|-------------------|-------------------|
-------------------|-------------------|-------------------|
-------------------|-------------------|-------------------|
-------------------|-------------------|-------------------|
-------------------|-------------------|-------------------|
-------------------|-------------------|-------------------|


  E  E  E  E  H           E  E  E  E  E  E  Q        E  E  E  E  Q.     E   
-----------------------|--------------------------|------------------------|
-----------------------|--------------------------|------------------------|
-----------------------|--------------------5~----|------------------------|
-----------------------|--------------5-----------|---------------------5--|
-----5--7--8-----------|-----8--7--8-----7--------|-----5--7--8------------|
--------------6--------|--------------------------|--------------6---------|


  W                   E  E  E  E  H           H        H         
-------------------|-----------------------|--------------------|
-------------------|-----------------------|--------------------|
-------------------|-----------------------|--------------------|
--L----------------|-----------------------|--------------------|
-------------------|-----5--7--8-----------|--------------------|
-------------------|--------------6--------|--3--------0--------|


                        w / slide                                          
  W                     E.        E.   Q     E  Q        W                 
-------------------|----------------------------------|-------------------|
-------------------|--/10-------/10---10S----8--------|-------------------|
-------------------|----------------------------9\----|-------------------|
-------------------|----------------------------------|-------------------|
-------------------|----------------------------------|-------------------|
-------------------|----------------------------------|-------------------|


  W                    E  E  E  E  H           E  E  E  E  E  E  Q      
--------------------|-----------------------|--------------------------|
--------------------|-----------------------|--------------------------|
--------------------|-----------------------|--------------------5~----|
--7\----------------|-----------------------|--------------5-----------|
--7\----------------|-----5--7--8-----------|-----8--7--8-----7--------|
--------------------|--------------6--------|--------------------------|


  E  E  E  E  Q.     E     W                   E  E  E  E  H         
------------------------|-------------------|-----------------------|
------------------------|-------------------|-----------------------|
------------------------|-------------------|-----------------------|
---------------------5--|--L----------------|-----------------------|
-----5--7--8------------|-------------------|-----5--7--8-----------|
--------------6---------|-------------------|--------------6--------|


  H        H           W                   W                 
--------------------|-------------------|-------------------|
--------------------|-------------------|-------------------|
--------------------|-------------------|-------------------|
--------------------|-------------------|-------------------|
--------------------|-------------------|-------------------|
--3--------0--------|-------------------|-------------------|


  W                   W                    H         E   E     S  E.   
-------------------|-------------------|------------------------------|
-------------------|-------------------|--15b--------L--15pb--15-15---|
-------------------|-------------------|------------------------------|
-------------------|-------------------|------------------------------|
-------------------|-------------------|------------------------------|
-------------------|-------------------|------------------------------|


   S   T  T  S  S S  E.   E   E   Q       W                 
---------------------------------------|-------------------|
--15br-L-13-13---------------13b--L----|-------------------|
---------------14-L-14---14------------|-------------------|
---------------------------------------|-------------------|
---------------------------------------|-------------------|
---------------------------------------|-------------------|


   |-----5-----|  |-----5-----|  |-----5-----|  |---3---|     
   S   S S  S  S  S   S S  S  S  S   S S  S  S  E   E   E     
-------------------------------------------------------------|
--15br-L-L-13----15br-L-L-13----15br-L-L-13----15--13--15br--|
--------------14-------------14-------------14---------------|
-------------------------------------------------------------|
-------------------------------------------------------------|
-------------------------------------------------------------|


  Q    S  S  S  S Q.      E      Q     E  E  H         
------------------------------|-----------------------|
--L----L-13--------------13b--|--L--------------------|
------------14-14-L-----------|-------14--------------|
------------------------------|-----------------------|
------------------------------|-----------------------|
------------------------------|-----------------------|


                     |---3--|                                  
   Q      H          E      S  S  S     E   E   H        Q     
--15b----15b--------15pbr--12----12-|-------------------------|
------------------------------15----|--13---------------------|
------------------------------------|------14~--L-------------|
------------------------------------|-------------------------|
------------------------------------|-------------------------|
------------------------------------|-------------------------|


  Q     H          Q         E.      S  H        E   E      Q    Q    H         
-------------------------|-------------------------------|---------------------|
-------15b--------15b----|--15pbr---13--------------13b--|--L------------------|
-------------------------|-------------14--------L-------|---------------------|
-------------------------|-------------------------------|---------------------|
-------------------------|-------------------------------|---------------------|
-------------------------|-------------------------------|---------------------|


   S  S  S  S  E   S  S  S   S  S  S   S  S  S  S   
--------------------------------------------------||
--13-------13-----13----13p-12----13p-12----13----||
-----14-14----14-----14--------14--------14----14-||
--------------------------------------------------||
--------------------------------------------------||
--------------------------------------------------||









Guitar 2


                             E  E  Q    E  E  S S S S  
E||-------|-------|-------|---------------------------|
B||-------|-------|-------|---------------------------|
G||-------|-------|-------|---------------------------|
D||-------|-------|-------|--------7----------5---5---|
A||-------|-------|-------|---------------------7---7-|
E||-------|-------|-------|--5--5-------5--5----------|


  E  E  S S S  S  H           E  E  Q    E  E  S S S S  
---------------------------|---------------------------|
---------------------------|---------------------------|
---------------------------|---------------------------|
----------5-7p-5b-L--------|--------7----------5---5---|
--------7------------------|---------------------7---7-|
--5--5---------------------|--5--5-------5--5----------|


  E  E  S S S  S  H           E  E  Q    E  E  S S S S  
---------------------------|---------------------------|
---------------------------|---------------------------|
---------------------------|---------------------------|
----------5-7p-5b-L--------|--------7----------5---5---|
--------7------------------|---------------------7---7-|
--5--5---------------------|--5--5-------5--5----------|


  E  E  Q    E  E  S S S S    E  E  Q    E  E  S S S S  
---------------------------|---------------------------|
---------------------------|---------------------------|
---------------------------|---------------------------|
--------7----------5---5---|--------7----------5---5---|
---------------------7---7-|---------------------7---7-|
--5--5-------5--5----------|--5--5-------5--5----------|


  E  E  Q    E  E  S S S S    E  E  Q    E  E  S S S S  
---------------------------|---------------------------|
---------------------------|---------------------------|
---------------------------|---------------------------|
--------7----------5---5---|--------7----------5---5---|
---------------------7---7-|---------------------7---7-|
--5--5-------5--5----------|--5--5-------5--5----------|


  E  E  Q    E  E  S S S S    E  E  Q    E  E  S S S S  
---------------------------|---------------------------|
---------------------------|---------------------------|
---------------------------|---------------------------|
--------7----------5---5---|--------7----------5---5---|
---------------------7---7-|---------------------7---7-|
--5--5-------5--5----------|--5--5-------5--5----------|


  E  E  Q    E  E  S S S S    E  E  Q    E  E  S S S S  
---------------------------|---------------------------|
---------------------------|---------------------------|
---------------------------|---------------------------|
--------7----------5---5---|--------7----------5---5---|
---------------------7---7-|---------------------7---7-|
--5--5-------5--5----------|--5--5-------5--5----------|


  E  E  Q    E  E  S S S S    E  E  Q    E  E  S S S S  
---------------------------|---------------------------|
---------------------------|---------------------------|
---------------------------|---------------------------|
--------7----------5---5---|--------7----------5---5---|
---------------------7---7-|---------------------7---7-|
--5--5-------5--5----------|--5--5-------5--5----------|


  E  E  Q    E  E  S S S S    H        H           H        H         
---------------------------|--------------------|--------------------|
---------------------------|--6--------3--------|--1--------5--------|
---------------------------|--7--------3--------|--2--------5--------|
--------7----------5---5---|--7--------3--------|--3--------5--------|
---------------------7---7-|--5--------1--------|--3--------3--------|
--5--5-------5--5----------|--------------------|--------------------|


  H        H           W                   H        H         
--------------------|-------------------|--------------------|
--6--------3--------|--3----------------|--6--------3--------|
--7--------3--------|--4----------------|--7--------3--------|
--7--------3--------|--5----------------|--7--------3--------|
--5--------1--------|--5----------------|--5--------1--------|
--------------------|--3----------------|--------------------|


  H        H           E  E  Q    E  E  S S S S    E  E  S S S  S  H         
-----------0--------|---------------------------|---------------------------|
--3--------0--------|---------------------------|---------------------------|
--4--------1--------|---------------------------|---------------------------|
--5--------2--------|--------7----------5---5---|----------5-7p-5b-L--------|
--5--------2--------|---------------------7---7-|--------7------------------|
--3--------0--------|--5--5-------5--5----------|--5--5---------------------|


  E  E  Q    E  E  S S S S    E  E  S S S  S  H         
---------------------------|---------------------------|
---------------------------|---------------------------|
---------------------------|---------------------------|
--------7----------5---5---|----------5-7p-5b-L--------|
---------------------7---7-|--------7------------------|
--5--5-------5--5----------|--5--5---------------------|


  E  E  Q    E  E  S S S S    E  E  Q    E  E  S S S S  
---------------------------|---------------------------|
---------------------------|---------------------------|
---------------------------|---------------------------|
--------7----------5---5---|--------7----------5---5---|
---------------------7---7-|---------------------7---7-|
--5--5-------5--5----------|--5--5-------5--5----------|


  E  E  Q    E  E  S S S S    E  E  Q    E  E  S S S S  
---------------------------|---------------------------|
---------------------------|---------------------------|
---------------------------|---------------------------|
--------7----------5---5---|--------7----------5---5---|
---------------------7---7-|---------------------7---7-|
--5--5-------5--5----------|--5--5-------5--5----------|


  E  E  Q    E  E  S S S S    E  E  Q    E  E  S S S S  
---------------------------|---------------------------|
---------------------------|---------------------------|
---------------------------|---------------------------|
--------7----------5---5---|--------7----------5---5---|
---------------------7---7-|---------------------7---7-|
--5--5-------5--5----------|--5--5-------5--5----------|


  E  E  Q    E  E  S S S S    E  E  Q    E  E  S S S S  
---------------------------|---------------------------|
---------------------------|---------------------------|
---------------------------|---------------------------|
--------7----------5---5---|--------7----------5---5---|
---------------------7---7-|---------------------7---7-|
--5--5-------5--5----------|--5--5-------5--5----------|


  E  E  Q    E  E  S S S S    E  E  Q    E  E  S S S S  
---------------------------|---------------------------|
---------------------------|---------------------------|
---------------------------|---------------------------|
--------7----------5---5---|--------7----------5---5---|
---------------------7---7-|---------------------7---7-|
--5--5-------5--5----------|--5--5-------5--5----------|


  E  E  Q    E  E  S S S S    E  E  Q    E  E  S S S S    H        H         
---------------------------|---------------------------|--------------------|
---------------------------|---------------------------|--6--------3--------|
---------------------------|---------------------------|--7--------3--------|
--------7----------5---5---|--------7----------5---5---|--7--------3--------|
---------------------7---7-|---------------------7---7-|--5--------1--------|
--5--5-------5--5----------|--5--5-------5--5----------|--------------------|


  H        H           H        H           W                 
--------------------|--------------------|-------------------|
--1--------5--------|--6--------3--------|--3----------------|
--2--------5--------|--7--------3--------|--4----------------|
--3--------5--------|--7--------3--------|--5----------------|
--3--------3--------|--5--------1--------|--5----------------|
--------------------|--------------------|--3----------------|


  H        H           H        H           E  E  Q    E  E  S S S S  
--------------------|-----------0--------|---------------------------|
--6--------3--------|--3--------0--------|---------------------------|
--7--------3--------|--4--------1--------|---------------------------|
--7--------3--------|--5--------2--------|--------7----------5---5---|
--5--------1--------|--5--------2--------|---------------------7---7-|
--------------------|--3--------0--------|--5--5-------5--5----------|


  E  E  S S S  S  H           E  E  Q    E  E  S S S S  
---------------------------|---------------------------|
---------------------------|---------------------------|
---------------------------|---------------------------|
----------5-7p-5b-L--------|--------7----------5---5---|
--------7------------------|---------------------7---7-|
--5--5---------------------|--5--5-------5--5----------|


  E  E  S S S  S  H           S S S S S E.  S S S S S S E   
---------------------------|-------------------------------|
---------------------------|-------------------------------|
---------------------------|-------------------------------|
----------5-7p-5b-L--------|-------------------------------|
--------7------------------|--6-5-3-5---3-----------5-3----|
--5--5---------------------|----------------0-3-5-5-----5--|


  S S S S S E.  S S S S Q       S S S S S E.  S S S S S S E   
-----------------------------|-------------------------------|
-----------------------------|-------------------------------|
-----------------------------|-------------------------------|
-----------------------------|-------------------------------|
--6-5-3-5---3---------3------|--6-5-3-5---3-----------5-3----|
----------------0-3-5---5----|----------------0-3-5-5-----5--|


  S S S S S S E  Q    Q                                                     
---------------------------|-------|-------|-------|-------|-------|-------|
---------------------------|-------|-------|-------|-------|-------|-------|
---------------------------|-------|-------|-------|-------|-------|-------|
---------------------------|-------|-------|-------|-------|-------|-------|
----------5-3----3----5----|-------|-------|-------|-------|-------|-------|
--3-0-3-0-----5------------|-------|-------|-------|-------|-------|-------|


                          E  E  Q    E  E  S S S S    E  E  Q    E  E  S S S S  
-------|-------|-------|---------------------------|---------------------------|
-------|-------|-------|---------------------------|---------------------------|
-------|-------|-------|---------------------------|---------------------------|
-------|-------|-------|--------7----------5---5---|--------7----------5---5---|
-------|-------|-------|---------------------7---7-|---------------------7---7-|
-------|-------|-------|--5--5-------5--5----------|--5--5-------5--5----------|


  E  E  Q    E  E  S S S S    E  E  Q    E  E  S S S S  
---------------------------|---------------------------|
---------------------------|---------------------------|
---------------------------|---------------------------|
--------7----------5---5---|--------7----------5---5---|
---------------------7---7-|---------------------7---7-|
--5--5-------5--5----------|--5--5-------5--5----------|


  E  E  Q    E  E  S S S S    E  E  Q    E  E  S S S S  
---------------------------|---------------------------|
---------------------------|---------------------------|
---------------------------|---------------------------|
--------7----------5---5---|--------7----------5---5---|
---------------------7---7-|---------------------7---7-|
--5--5-------5--5----------|--5--5-------5--5----------|


  E  E  Q    E  E  S S S S    E  E  Q    E  E  S S S S  
---------------------------|---------------------------|
---------------------------|---------------------------|
---------------------------|---------------------------|
--------7----------5---5---|--------7----------5---5---|
---------------------7---7-|---------------------7---7-|
--5--5-------5--5----------|--5--5-------5--5----------|


  E  E  Q    E  E  S S S S    E  E  Q    E  E  S S S S  
---------------------------|---------------------------|
---------------------------|---------------------------|
---------------------------|---------------------------|
--------7----------5---5---|--------7----------5---5---|
---------------------7---7-|---------------------7---7-|
--5--5-------5--5----------|--5--5-------5--5----------|


  E  E  Q    E  E  S S S S    E  E  Q    E  E  S S S S    H        H         
---------------------------|---------------------------|--------------------|
---------------------------|---------------------------|--6--------3--------|
---------------------------|---------------------------|--7--------3--------|
--------7----------5---5---|--------7----------5---5---|--7--------3--------|
---------------------7---7-|---------------------7---7-|--5--------1--------|
--5--5-------5--5----------|--5--5-------5--5----------|--------------------|


  H        H           H        H           W                 
--------------------|--------------------|-------------------|
--1--------5--------|--6--------3--------|--3----------------|
--2--------5--------|--7--------3--------|--4----------------|
--3--------5--------|--7--------3--------|--5----------------|
--3--------3--------|--5--------1--------|--5----------------|
--------------------|--------------------|--3----------------|


  H        H           H        H           E  E  Q    E  E  S S S S  
--------------------|-----------0--------|---------------------------|
--6--------3--------|--3--------0--------|---------------------------|
--7--------3--------|--4--------1--------|---------------------------|
--7--------3--------|--5--------2--------|--------7----------5---5---|
--5--------1--------|--5--------2--------|---------------------7---7-|
--------------------|--3--------0--------|--5--5-------5--5----------|


  E  E  S S S  S  H           E  E  Q    E  E  S S S S  
---------------------------|---------------------------|
---------------------------|---------------------------|
---------------------------|---------------------------|
----------5-7p-5b-L--------|--------7----------5---5---|
--------7------------------|---------------------7---7-|
--5--5---------------------|--5--5-------5--5----------|


  E  E  S S S  S  H           H        H           H        H         
---------------------------|--------------------|--------------------|
---------------------------|--6--------3--------|--1--------5--------|
---------------------------|--7--------3--------|--2--------5--------|
----------5-7p-5b-L--------|--7--------3--------|--3--------5--------|
--------7------------------|--5--------1--------|--3--------3--------|
--5--5---------------------|--------------------|--------------------|


  H        H           W                   H        H         
--------------------|-------------------|--------------------|
--6--------3--------|--3----------------|--6--------3--------|
--7--------3--------|--4----------------|--7--------3--------|
--7--------3--------|--5----------------|--7--------3--------|
--5--------1--------|--5----------------|--5--------1--------|
--------------------|--3----------------|--------------------|


  H        H           E  E  Q    E  E  S S S S    E  E  Q    E  E  S S S S  
-----------0--------|---------------------------|---------------------------|
--3--------0--------|---------------------------|---------------------------|
--4--------1--------|---------------------------|---------------------------|
--5--------2--------|--------7----------5---5---|--------7----------5---5---|
--5--------2--------|---------------------7---7-|---------------------7---7-|
--3--------0--------|--5--5-------5--5----------|--5--5-------5--5----------|


  E  E  Q    E  E  S S S S    E  E  Q    E  E  S S S S  
---------------------------|---------------------------|
---------------------------|---------------------------|
---------------------------|---------------------------|
--------7----------5---5---|--------7----------5---5---|
---------------------7---7-|---------------------7---7-|
--5--5-------5--5----------|--5--5-------5--5----------|


  E  E  Q    E  E  S S S S    E  E  Q    E  E  S S S S  
---------------------------|---------------------------|
---------------------------|---------------------------|
---------------------------|---------------------------|
--------7----------5---5---|--------7----------5---5---|
---------------------7---7-|---------------------7---7-|
--5--5-------5--5----------|--5--5-------5--5----------|


  E  E  Q    E  E  S S S S    E  E  Q    E  E  S S S S  
---------------------------|---------------------------|
---------------------------|---------------------------|
---------------------------|---------------------------|
--------7----------5---5---|--------7----------5---5---|
---------------------7---7-|---------------------7---7-|
--5--5-------5--5----------|--5--5-------5--5----------|


  E  E  Q    E  E  S S S S    E  E  Q    E  E  S S S S  
---------------------------|---------------------------|
---------------------------|---------------------------|
---------------------------|---------------------------|
--------7----------5---5---|--------7----------5---5---|
---------------------7---7-|---------------------7---7-|
--5--5-------5--5----------|--5--5-------5--5----------|


  E  E  Q    E  E  S S S S    E  E  Q    E  E  S S S S  
---------------------------|---------------------------|
---------------------------|---------------------------|
---------------------------|---------------------------|
--------7----------5---5---|--------7----------5---5---|
---------------------7---7-|---------------------7---7-|
--5--5-------5--5----------|--5--5-------5--5----------|


  E  E  Q    E  E  S S S S    E  E  Q    E  E  S S S S  
---------------------------|---------------------------|
---------------------------|---------------------------|
---------------------------|---------------------------|
--------7----------5---5---|--------7----------5---5---|
---------------------7---7-|---------------------7---7-|
--5--5-------5--5----------|--5--5-------5--5----------|


  E  E  Q    E  E  S S S S    E  E  Q    E  E  S S S S   
---------------------------|---------------------------||
---------------------------|---------------------------||
---------------------------|---------------------------||
--------7----------5---5---|--------7----------5---5---||
---------------------7---7-|---------------------7---7-||
--5--5-------5--5----------|--5--5-------5--5----------||




Duration Legend
---------------
W - whole
H - half
Q - quarter
E - 8th
S - 16th
T - 32nd
X - 64th
. - note dotted
|-n-|  - n-tuplets


Tablature Legend
----------------
L - tied note
x - dead note
g - grace note
(n) - ghost note
> - accentuded note
NH - natural harmonic
AH - artificial harmonic
TH - tapped harmonic
SH - semi harmonic
PH - pitch harmonic
h - hammer on
p - pull off
b - bend
br - bendRelease
pb - preBend
pbr - preBendRelease
brb - bendReleaseBend
\n/ - tremolo bar dip
\n - tremolo bar dive
-/n - tremolo bar Release up
/n\ - tremolo bar inverted dip
/n - tremolo bar return
-\n - tremolo bar Release down
S - shift slide
s - legato slide
/ -  slide into from below or out of upwards
\ -  slide into from above or out of downwards
~ - vibrato
W - wide vibrato
tr - trill
TP - tremolo picking
T - tapping
S - slap
P - pop
< - fade in
^ - brush up
v - brush down

comments
We did not receive enough feedback on this tab! Please rate:
print report bad tab
1 2 3 4 5
I want to post or [tab]
guest
You may want to rate the tab now too:
select rating
Please do not post tabs as comments. Select "correction" instead!