Oops, an error
Loading. Please wait.

Blind Bass Tab

ver1
ver1

Whole song

Interactive

More versions @911Tabs.com
471 views 1 this week
no commentswrite comment
1 2 3 4 5
please rate
Autoscroll
+/-
esc
set tempo
stop
Hey! There's an official Ultimate Guitar app which is ideal
for learning songs when you're away from computer. Get the app
WARNING: You are trying to view
                                    content from Ultimate-Guitar.com
                                    in an unauthorized application,
                                    which is prohibited.

                                    Please use an official Ultimate
                                    Guitar Tabs application for iPhone,
                                    iPad or Android to access legitimate
                                    chords, guitar, bass, and drum tabs
                                    from Ultimate-Guitar.com database.

                                    Type "ultimate guitar tabs" in Apple
                                    App Store's or Android Market's
                                    search to find the application.
Band: Deep Purple
Song: Blind
Album: Deep Purple





     W                   H.           E  E     H        E  E  E  E   
G||-------------------|---------------------|-----------------------|
D||-------------------|------------------0--|--2-----------2-----0--|
A||-------------------|---------------2-----|-----------------2-----|
E||-------------------|---------------------|-----------------------|


  H        E  E  E  E     H        E  E  E  E     H        E  E  E  E   
-----------------------|-----------------------|--2-----------2--------|
--2-----------2-----0--|--4-----------4-----0--|--------------------0--|
-----------------2-----|-----------------2-----|-----------------2-----|
-----------------------|-----------------------|-----------------------|


  Q    E  E  E  E  E  E     Q.     E  E  E  E  E     Q.     E  E  E  E  E   
-------------------------|------------------------|------------------------|
--2-------------2-----0--|--2------------2-----0--|--4------------4-----0--|
-------------------2-----|------------------2-----|------------------2-----|
----------0--0-----------|---------0--0-----------|---------2--2-----------|


  Q.     E  E  E  E  E     Q    E  E  E  Q    E     Q    E  E  E  Q    E   
--2------------2--------|------------------------|------------------------|
---------------------0--|------------------------|------------------------|
---------0--0-----2-----|----------2--2--2-------|----------2--2--2-------|
------------------------|--0------------------0--|--0------------------0--|


  Q    E  E  E  Q    E     Q    E  E  E  Q    E     Q    E  E  E  Q    E   
------------------------|------------------------|------------------------|
------------------------|------------------------|------------------------|
----------2--2--2-------|----------2--2--2-------|----------2--2--2-------|
--0------------------0--|--0------------------0--|--0------------------0--|


  Q    E  E  E  Q    E     Q    E  E  E  Q    E     Q.     E  E  Q    E   
------------------------|------------------------|-----------------------|
------------------------|------------------------|-----------------------|
----------2--2--2-------|----------2--2--2-------|---------2--2--2-------|
--0------------------0--|--0------------------0--|--0-----------------4--|


  Q.     E  E  Q    E     Q.     E  E  Q    E     Q    E  E  E  Q    E   
-----------------------|-----------------------|------------------------|
-----------------------|--------------------0--|------------------------|
--0------0--4--4-------|--0------0--4--4-------|----------2--2--2-------|
--------------------4--|-----------------------|--0------------------0--|


  Q    E  E  E  Q.        E  E  Q    E  E  Q       Q    Q    Q    Q     
-----------------------|------------------------|----------------------|
-----------------------|------------------------|--0----0--------------|
----------2--2--2------|-------------2-----2----|------------0----0----|
--0--------------------|--2-----2---------------|----------------------|


  H        H           H        H           W                 
--------------------|--------------------|-------------------|
--------------------|--------------------|-------------------|
--------------------|-----------0--------|--2----------------|
--0--------3--------|--2--------2--------|-------------------|


  H        H           Q    E  E  E  Q    E     Q    E  E  E  Q    E   
--------------------|------------------------|------------------------|
--------------------|------------------------|------------------------|
--L-----------------|----------2--2--2-------|----------2--2--2-------|
--------------------|--0------------------0--|--0------------------0--|


  Q    E  E  E  Q    E     Q    E  E  E  Q    E     Q    E  E  E  Q    E   
------------------------|------------------------|------------------------|
------------------------|------------------------|------------------------|
----------2--2--2-------|----------2--2--2-------|----------2--2--2-------|
--0------------------0--|--0------------------0--|--0------------------0--|


  Q    E  E  E  Q    E     Q    E  E  E  Q    E     Q.     E  E  Q    E   
------------------------|------------------------|-----------------------|
------------------------|------------------------|-----------------------|
----------2--2--2-------|----------2--2--2-------|---------2--2--2-------|
--0------------------0--|--0------------------0--|--0-----------------4--|


  Q    E  E  E  Q    E     Q    E  E  E  Q    E     Q    E  E  E  Q    E   
------------------------|------------------------|------------------------|
------------------------|---------------------0--|------------------------|
--0-------0--4--4-------|--0-------0--4--4-------|----------2--2--2-------|
---------------------4--|------------------------|--0------------------0--|


  Q.     E  E  Q.        E  E  Q    E  E  Q       Q    Q    E  E  Q     
----------------------|------------------------|-----------------------|
----------------------|------------------------|--0----0---------------|
---------2--2--2------|-------------2-----2----|------------0-----0----|
--0-------------------|--2-----2---------------|-----------------------|


  H        H           H        H           W                 
--------------------|--------------------|-------------------|
--------------------|--------------------|-------------------|
--------------------|-----------0--------|--2----------------|
--0--------3--------|--2--------2--------|-------------------|


  H        H           Q    Q    Q    Q       Q    Q    Q    Q     
--------------------|----------------------|----------------------|
--------------------|-------0---------0----|-------0--------------|
--L-----------------|----------------------|-----------------0----|
--------------------|----------------------|----------------------|


  Q    Q    Q    Q       Q    Q    Q    Q       Q    Q    Q    Q     
----------------------|----------------------|----------------------|
----------------------|----------------------|----------------------|
-------0---------0----|----------------------|----------------------|
----------------------|-------2---------2----|-------2---------2----|


  H.           Q       H.           E  E     E  H.           E   
--------------------|---------------------|---------------------|
--------------------|---------------------|---------------------|
--0------------0----|--2---------------0--|--2------------------|
--------------------|---------------2-----|---------------------|


  Q    E  E  E  Q    E     Q    E  E  E  Q    E     Q    E  E  E  Q    E   
------------------------|------------------------|------------------------|
------------------------|------------------------|------------------------|
----------2--2--2-------|----------2--2--2-------|----------2--2--2-------|
--0------------------0--|--0------------------0--|--0------------------0--|


  Q    E  E  E  Q    E     Q    E  E  E  Q    E     Q    E  E  E  Q    E   
------------------------|------------------------|------------------------|
------------------------|------------------------|---------------------0--|
----------2--2--2-------|--0-------0--4--4-------|--0-------0--4--4-------|
--0------------------0--|---------------------4--|------------------------|


  Q    E  E  E  Q    E     Q.     E  E  Q.        E  E  Q    E  E  Q     
------------------------|----------------------|------------------------|
------------------------|----------------------|------------------------|
----------2--2--2-------|---------2--2--2------|-------------2-----2----|
--0------------------0--|--0-------------------|--2-----2---------------|


  Q    Q    Q    E  E     H        H           H        H         
-----------------------|--------------------|--------------------|
--0----0---------------|--------------------|--------------------|
------------0-------0--|--------------------|-----------0--------|
-----------------------|--0--------3--------|--2--------2--------|


  W                   H        H           Q    E  E  E  Q    E   
-------------------|--------------------|------------------------|
-------------------|--------------------|------------------------|
--2----------------|--L-----------------|----------2--2--2-------|
-------------------|--------------------|--0------------------0--|


  Q    E  E  E  Q    E     Q    E  E  E  Q    E     Q    E  E  E  Q    E   
------------------------|------------------------|------------------------|
------------------------|------------------------|------------------------|
----------2--2--2-------|----------2--2--2-------|----------2--2--2-------|
--0------------------0--|--0------------------0--|--0------------------0--|


  Q    E  E  E  Q    E     Q    E  E  E  Q    E     Q    E  E  E  Q    E   
------------------------|------------------------|------------------------|
------------------------|------------------------|------------------------|
----------2--2--2-------|----------2--2--2-------|----------2--2--2-------|
--0------------------0--|--0------------------0--|--0------------------0--|


  Q.     E  E  Q    E     Q    E  E  E  Q    E     Q    E  E  E  Q    E   
-----------------------|------------------------|------------------------|
-----------------------|------------------------|---------------------0--|
---------2--2--2-------|--0-------0--4--4-------|--0-------0--4--4-------|
--0-----------------4--|---------------------4--|------------------------|


  Q    E  E  E  Q    E     Q    E  E  E  Q.        E  E  Q    E  E  Q     
------------------------|-----------------------|------------------------|
------------------------|-----------------------|------------------------|
----------2--2--2-------|----------2--2--2------|-------------2-----2----|
--0------------------0--|--0--------------------|--2-----2---------------|


  Q    Q    E  E  Q       H        H           H        H         
-----------------------|--------------------|--------------------|
--0----0---------------|--------------------|--------------------|
------------0-----0----|--------------------|-----------0--------|
-----------------------|--0--------3--------|--2--------2--------|


  W                   H        H           Q    Q    Q    Q     
-------------------|--------------------|----------------------|
-------------------|--------------------|-------0---------0----|
--2----------------|--L-----------------|----------------------|
-------------------|--------------------|----------------------|


  Q    Q    Q    Q       Q    Q    Q    Q       Q    Q    Q    Q     
----------------------|----------------------|----------------------|
-------0--------------|----------------------|----------------------|
-----------------0----|-------0---------0----|----------------------|
----------------------|----------------------|-------2---------2----|


  Q    Q    Q    Q       H.           Q       H.           E  E   
----------------------|--------------------|---------------------|
----------------------|--------------------|---------------------|
----------------------|--0------------0----|--2---------------0--|
-------2---------2----|--------------------|---------------2-----|


  E  H.           E     Q.     E  H           Q.     E  H         
---------------------|---------------------|---------------------|
---------------------|---------------------|---------------------|
--2------------------|---------------------|------------0--------|
---------------------|--0------2--3--------|--2------3-----------|


  Q    E  E  Q    E.  S    Q    E  E  Q    E  E     Q    E  E  Q    E  E   
------------------------|------------------------|------------------------|
------------------------|------------------------|------------------------|
------------------------|-------------0----0-----|------------------------|
--0----0--2--3----3---2-|--2----2--3----------3--|--0----0--2--3----3--3--|


  Q    E  E  Q    E  E     Q    E  E  Q    E  E     Q    E  E  Q    E  E   
------------------------|------------------------|------------------------|
------------------------|------------------------|------------------------|
-------------0----0--0--|------------------2-----|-------------0----3--2--|
--2----2--3-------------|--0----0--2--3-------3--|--2----2--3-------------|


  Q    E  E  Q    E  E     Q    E  E  Q    E  S S    Q    E  E  Q    E  E   
------------------------|-------------------------|------------------------|
------------------------|-------------------------|------------------------|
------------------2-----|-------------0----3--2-0-|------------------2-----|
--0----0--2--3-------3--|--2----2--3--------------|--0----0--2--3-------3--|


  Q    E  E  E  E  E  S S    Q    E  E  Q    E  E     Q    E  E  Q    E  E   
--------------------------|------------------------|------------------------|
--------------------------|------------------------|------------------------|
-------------0--3--3--0-2-|------------------------|-------------0----2--0--|
--2----2--3---------------|--0----0--2--3----3--3--|--2----2--3-------------|


  Q.     E  H           H        Q.     E     W                 
---------------------|---------------------|-------------------|
---------------------|---------------------|-------------------|
---------------------|-----------0---------|-------------------|
--0------2--3--------|--2------------------|-------------------|


  W                   W                   W                   W                 
-------------------|-------------------|-------------------|-------------------|
-------------------|-------------------|-------------------|-------------------|
-------------------|-------------------|-------------------|-------------------|
-------------------|-------------------|-------------------|-------------------|


  W                   W                   W                   W                 
-------------------|-------------------|-------------------|-------------------|
-------------------|-------------------|-------------------|-------------------|
-------------------|-------------------|-------------------|-------------------|
-------------------|-------------------|-------------------|-------------------|


  W                   W                   W                   W                 
-------------------|-------------------|-------------------|-------------------|
-------------------|-------------------|-------------------|-------------------|
-------------------|-------------------|-------------------|-------------------|
-------------------|-------------------|-------------------|-------------------|


  W                   W                  
-------------------|-------------------||
-------------------|-------------------||
-------------------|-------------------||
-------------------|-------------------||




Duration Legend
---------------
W - whole
H - half
Q - quarter
E - 8th
S - 16th
T - 32nd
X - 64th
. - note dotted
|-n-|  - n-tuplets


Tablature Legend
----------------
L - tied note
x - dead note
g - grace note
(n) - ghost note
> - accentuded note
NH - natural harmonic
AH - artificial harmonic
TH - tapped harmonic
SH - semi harmonic
PH - pitch harmonic
h - hammer on
p - pull off
b - bend
br - bendRelease
pb - preBend
pbr - preBendRelease
brb - bendReleaseBend
\n/ - tremolo bar dip
\n - tremolo bar dive
-/n - tremolo bar Release up
/n\ - tremolo bar inverted dip
/n - tremolo bar return
-\n - tremolo bar Release down
S - shift slide
s - legato slide
/ -  slide into from below or out of upwards
\ -  slide into from above or out of downwards
~ - vibrato
W - wide vibrato
tr - trill
TP - tremolo picking
T - tapping
S - slap
P - pop
< - fade in
^ - brush up
v - brush down
comments
We did not receive enough feedback on this tab! Please rate:
print report bad tab
1 2 3 4 5
I want to post or [tab]
guest
You may want to rate the tab now too:
select rating
Please do not post tabs as comments. Select "correction" instead!