Oops, an error
Loading. Please wait.

Bludsucker Tab

890 views 1 this week
1 commentread comment
1 2 3 4 5
excellent!
x 1
Autoscroll
+/-
esc
set tempo
stop
Contributor
Difficulty
intermediate
WARNING: You are trying to view
                                    content from Ultimate-Guitar.com
                                    in an unauthorized application,
                                    which is prohibited.

                                    Please use an official Ultimate
                                    Guitar Tabs application for iPhone,
                                    iPad or Android to access legitimate
                                    chords, guitar, bass, and drum tabs
                                    from Ultimate-Guitar.com database.

                                    Type "ultimate guitar tabs" in Apple
                                    App Store's or Android Market's
                                    search to find the application.
Bludsucker (1998) Tab by Deep Purple
Tabbed by Mathias Braathen

E-----------------|-------------------|----------------------------------||----|
B-----------------|-------------------|----------------------------------||*---|
G-----------------|-------------------|----------------------------------||----|
D-----------------|-------------------|----------------------5-----------||----|
A-------5---------|-----------5-------|----------5-----7-5-----9-7-------||*-2-|
E-5-6-7---7-6-5---|-----5-6-7---7-5-3-|----5-6-7---7-5-----7-------6-5-3-||--0-|

                                                      X3

E|----------------------|------------------------------||----------------------|
B|----------------------|-----------------------------*||----------------------|
G|----------------------|------------------------------||----------------------|
D|--------------5-------|------------------------------||----------------5-----|
A|-----2--------5--4--3-|-2-----2-------------5-------*||-2-----2--------5--4--|
E|-0-0-0-0-0-0--3--2--1-|-0-0-0-0-0-0-0-5-6-7---7-5-3--||-0-0-0-0-0-0-0--3--2--|

E|---|--------|--------------|-------------------------------------|-----------|
B|---|--------|--------------|-------------------------------------|-----------|
G|---|--------|--------------|-------------------------/9-7--------|-----------|
D|---|--------|--------------|-7b9--r----7------------------9-7----|-7b9--r----|
A|-3-|--2-2---|--------------|--------10---10-7----7------------10-|--------10-|
E|-1-|--0-0---|--------------|------------------10-----------------|-----------|

E|-------------------|-------------------------------------|---------------------|
B|-------------------|-------------------------------------|---------------------|
G|-------------------|-------------------------/9-7--------|-------7-----9-------|
D|-7------------5----|-7b9--r----7------------------9-7----|-7h8h9---7/9----7h8h-|
A|---10-7----7-----5~|--------10---10-7----7------------10-|---------------------|
E|--------10---------|------------------10-----------------|---------------------|

                                                                          Verse 2

E|-----------|----------------------|------------------|----------------||-----|
B|-----------|----------------------|------------------|----------------||*----|
G|---7-----9~|----------------------|------------------|----------------||-----|
D|-9---7-9---|----------------------|------------------|----------------||-----|
A|-----------|----------------------|------------------|--------5-------||*--2-|
E|-----------|----------------------|------------------|--5-6-7---7-5-3-||---0-|

E|----------------------|------------------------------||---0-----0---0---------|
B|----------------------|-----------------------------*||---0-----0---0---------|
G|----------------------|------------------------------||-----------------------|
D|--------------5-------|------------------------------||------------------5----|
A|-----2--------5--4--3-|-2-----2-------------5-------*||-2----------------5--4-|
E|-0-0-0-0-0-0--3--2--1-|-0-0-0-0-0-0-0-5-6-7---7-5-3--||-0---0-0---0---0--3--2-|

E|----|-------0-------0---------------|---0-------0---0----------|-------10b12-|
B|----|-------0-------0---------------|---0-------0---0----------|-------------|
G|----|-------------------------------|--------------------------|-------------|
D|----|-------------------------------|------------------5-------|-------------|
A|--3-|-2---------------------5-------|-2----------------5--4--3-|-2--2--------|
E|--1-|-0-0-0---0-0-0---5-6-7---7-5-3-|-0---0-0-0---0----3--2--1-|-0--0--------|

E-------------|-------------------------10b12--r7------|-----------------------|
B-------------|--10b12--r-8b10--r-----------------10-8-|-----------------------|
G-------------|------------------9-7-9-----------------|-----------------------|
D-------------|----------------------------------------|-7b9--r----7-----------|
A-------------|----------------------------------------|--------10---10-7----7-|
E-------------|----------------------------------------|------------------10---|

E|-------|-------------------------------------|----------------------------------|
B|-------|-------------------------------------|----------------------------------|
G|-------|-------------------------/9-7--------|-------7-----9-------7-----11/12~-|
D|--5----|-7b9--r----7------------------9-7----|-7h8h9---7/9---7h8h9---7-9--------|
A|-----5~|--------10---10-7----7------------10-|----------------------------------|
E|-------|------------------10-----------------|----------------------------------|

                                                                       Verse 3

E-|---------------------|--------------|-------------|---------------||---------|
B-|---------------------|--------------|-------------|---------------||*--------|
G-|-----11~---12p11-9~--|--------------|-------------|---------------||---------|
D-|---------------------|--------------|-------------|---------------||---------|
A-|---------------------|--------------|-------------|-------5-------||*--2-----|
E-|---------------------|--------------|-------------|-5-6-7---7-5-3-||---0-0-0-|

E|------------------|------------------------------||---0-----0---0------------|
B|------------------|-----------------------------*||---0-----0---0------------|
G|------------------|------------------------------||--------------------------|
D|----------5-------|------------------------------||------------------5-------|
A|-2--------5--4--3-|-2-----2-------------5-------*||-2----------------5--4--3-|
E|-0-0-0-0--3--2--1-|-0-0-0-0-0-0-0-5-6-7---7-5-3--||-0---0-0---0---0--3--2--1-|

E-|-------0-------0---------------|---0-------0---0------------|-------10b12----|
B-|-------0-------0---------------|---0-------0---0------------|----------------|
G-|-------------------------------|----------------------------|----------------|
D-|-------------------------------|--------------------5-------|----------------|
A-|-2---------------------5-------|-2------------------5--4--3-|-2--2-----------|
E-|-0-0-0---0-0-0---5-6-7---7-5-3-|-0---0-0-0---0---0--3--2--1-|-0--0-----------|

E----------|-------------------------------------|-----------------------------|
B----------|-------------------------------------|-----------------------------|
G----------|-------------------------/9-7--------|-----------------------------|
D----------|-7b9--r----7------------------9-7----|-7b9--r----7------------5----|
A----------|--------10---10-7----7------------10-|--------10---10-7----7-----5-|
E----------|------------------10-----------------|------------------10---------|

E-|------------------------------------------|----------------------------------|
B-|-14b16--r-12-14---------------------------|----------------------------------|
G-|-14b16--r-12-14-12-------------9-7--------|-------7-----9-------7-----11/12~-|
D-|-------------------14-12-14-------9-7----|-7h8h9---7/9---7h8h9---7-9---------|
A-|---------------------------------------10-|----------------------------------|
E-|------------------------------------------|----------------------------------|

E-|------------------------|-0h8~--------|-------|-----------------------------|
B-|----------10~-----------|-------------|-------|-----------------------------|
G-|------------------------|-------------|-------|-----------------------------|
D-|------------------------|-------------|-------|---------5-------5-----------|
A-|------------------------|-------------|-------|-7-5---5---7---5---7-7-7-----|
E-|------------------------|-------------|-------|-----7---------------------7-|

E|-----------|-10h12-0-0-0-0-0-10h12p10p0-9h10p9p0-7-0-0-0-9-|-0-0-0-0-10-0-0-10--|h
B|-----------|-----------------------------------------------|--------------------|
G|-----------|-----------------------------------------------|--------------------|
D|-----------|-----------------------------------------------|--------------------|
A|-----------|-----------------------------------------------|--------------------|
E|-6--5--0-3-|-----------------------------------------------|--------------------|

E|-12-0-0-0-0-10h12-10-12-0-14--------|-12----12-------14-12-------16-12-------|
B|------------------------------------|----15----15-12-------15-12-------15-12-|
G|------------------------------------|----------------------------------------|
D|------------------------------------|----------------------------------------|
A|------------------------------------|----------------------------------------|
E|------------------------------------|----------------------------------------|

E|-16b18--r-b2--------|-15-14-12----12-14-12-----------------------------------|
B|--------------------|----------16----------16-15-14-13-----------------------|
G|--------------------|----------------------------------16-14-12--------------|
D|--------------------|-------------------------------------------16b20--------|
A|--------------------|--------------------------------------------------------|
E|--------------------|--------------------------------------------------------|

              Pick Slide                              Organ Solo

E-|-------------------|-------------|-------------------|-----------|-----------|
B-|-------------------|-------------|-----------------5-|-----------|-----------|
G-|-------------------|-------------|-----------------4-|-----------|-----------|
D-|---------5---------|-----5-------|-------------------|-----------|-----------|
A-|-7-5---5---{7}-----|---5---7-7-7-|-------------------|-----------|-----------|
E-|-----7------------|-------------|-7-6-5--0-3~-------|-----------|------------|

E|--|----------|---------------|---------------|-------------|--------------|---|
B|--|----------|---------------|---------------|-------------|--------------|---|
G|--|----------|---------------|---------------|-------------|--------------|---|
D|--|----------|---------------|---------5-----|-----5-------|--------------|---|
A|--|----------|---------------|-7-5---5---{7}-|---5---7-7-7-|--------------|---|
E|--|----------|---------------|-----7---------|-------------|-7-6-5--0-3~--|-0-|

           Very Heavy Muting(left and right hand)

E|-------------------------------------------------------------------|----------|
B|-------------------------------------------------------------------|----------|
G|------12-------------------12-------------------12-----------14b16-|-12----12-|
D|------12-------------------12-------------------12-----14-12-------|-12----12-|
A|----------x--x--x--x--x--x-----x--x--x--x--x--x--------------------|----------|
E|--/12----12-12-12-12-12-12----12-12-12-12-12-12----x-x-------------|----10----|

E|-----------15-------------15------------------------------------|-0-0-0-0-0-0--|
B|-----------15-------------15------------------------------------|--------------|
G|--------------------------------------14b16--r12------------(9)|---------------|
D|-------------------------------------------------14~------------|--------------|
A|----------------------------------------------------------------|--------------|
E|-12--12-12----12-12-12-12----12-12-10---------------------------|--------------|

E|-10-0-0-12-0-0-14-------|-12-------------------------------------------|------|
B|------------------------|----16-15-14-13-------------------------------|------|
G|------------------------|----------------16-15-14-12----12-14----------|------|
D|------------------------|----------------------------16----------------|------|
A|------------------------|----------------------------------------------|-7-5--|
E|------------------------|-------------------------------------14~b15--|-------|

                                                        Organ Solo 2

E|--------------------|-------------------|--------------||---------------------|
B|--------------------|-------------------|--------------||*--------------------|
G|--------------------|-------------------|--------------||---------------------|
D|-----5-------/18~--|---5---------------|--------------||----------------------|
A|---5---{7}----------|-5---7-7-7---------|--------------||*-2---------2--------|
E|-7------------------|------------{2}b3--|-7-6-5--0-3~--||--0-0-0-0-0-0-0-0-0--|

          X4

E----------||---------------|-------------|---------------|--------------------|
B---------*||---------------|-------------|---------------|--------------------|
G----------||---------------|-------------|---------------|-2------------------|
D----------||---------5-----|-----5-------|---------------|-2------------------|
A---0-2-5-*||-7-5---5---{7}-|---5---7-7-7-|---------------|-0----0-0-0-0-0-0-0-|
E-0--------||-----7---------|-------------|-7-6-5--0-3~---|--------------------|

     Move pick up and down string for different A.H pitches         Verse 4

E|-----------------------------------------------------------------||----------|
B|-----------------------------------------------------------------||*---------|
G|-----------------------------------------------------------------||----------|
D|-2---------------------------------------------------------------||----------|
A|-0-{0}-{0}-{0}-{0}-{0}-{0}-{0}-{0}-{0}-{0}-{0}-{0}-------5-------||*-2-----2-|
E|---------------------------------------------------5-6-7---7-5-3-||--0-0-0-0-|

                                   X7(with variations on last3)

E|----------------|------------------------------||----------------------------|
B|----------------|-----------------------------*||----------------------------|
G|----------------|------------------------------||----------------------------|
D|--------5-------|------------------------------||----------------------------|
A|--------5--4--3-|-2-----2-------------5-------*||-2-----2-----------5--------|
E|-0-0-0--3--2--1-|-0-0-0-0-0-0-0-5-6-7---7-5-3--||-0-0-0-0-0-0-5-6-7---7-6-5--|

E|----------------------------------------------------------|
B|----------------------------------------------7-8~--------|
G|------------------------------------------7-9-------------|
D|------------------------------------7-8-9-----------------|
A|-------5------------0-------5-----------------------------|
E|-5-6-7---7-5-3--0-3---5h6h7---5h6h7-----------------------|
comments
We did not receive enough feedback on this tab! Please rate:
print report bad tab
1 2 3 4 5
1 comment total.
0 reply
stef123 wrote on May 12 2007, 07:50 am

????

I want to post or [tab]
guest
You may want to rate the tab now too:
select rating
Please do not post tabs as comments. Select "correction" instead!