Oops, an error
Loading. Please wait.

Clearly Quite Absurd Tab

ver1
ver1

Whole song

Interactive

More versions @911Tabs.com
1,612 views 1 this week
no commentswrite comment
1 2 3 4 5
excellent!
x 2
add to favorites launch autoscroll
font size
0
reset
Autoscroll
+/-
esc
set tempo
stop
WARNING: You are trying to view
                                    content from Ultimate-Guitar.com
                                    in an unauthorized application,
                                    which is prohibited.

                                    Please use an official Ultimate
                                    Guitar Tabs application for iPhone,
                                    iPad or Android to access legitimate
                                    chords, guitar, bass, and drum tabs
                                    from Ultimate-Guitar.com database.

                                    Type "ultimate guitar tabs" in Apple
                                    App Store's or Android Market's
                                    search to find the application.
Band: Deep Purple
Song: Clearly Quite Absurd



Guitar # 1:


     H           S S S E.  S E.  S Q    S    E  S E.  S H        S  
E||-----------|--------2---0--------------|------------------------|
B||-----------|------3-------3---0-2------|-------0----------------|
G||-----------|----4--------------------2-|--L----------0--------L-|
D||-----------|--4------------------------|-----4-----4------------|
A||-----------|---------------------------|------------------------|
E||-----------|---------------------------|------------------------|


  S S S E.  S E.  S Q    S    E  S E.  S H        S    W                 
--------2---0--------------|------------------------|-------------------|
----0-3-------3---0-2------|-------0----------------|-------------------|
-------------------------2-|--L---------------------|-------------------|
--4------------------------|-----4-----0-4--------L-|-------------------|
---------------------------|------------------------|-------------------|
---------------------------|------------------------|-------------------|


  W                   W                   W                   W                 
-------------------|-------------------|-------------------|-------------------|
-------------------|-------------------|-------------------|-------------------|
-------------------|-------------------|-------------------|-------------------|
-------------------|-------------------|-------------------|-------------------|
-------------------|-------------------|-------------------|-------------------|
-------------------|-------------------|-------------------|-------------------|


  W                   W                   W                 
-------------------|-------------------|-------------------|
-------------------|-------------------|-------------------|
-------------------|-------------------|-------------------|
-------------------|-------------------|-------------------|
-------------------|-------------------|-------------------|
-------------------|-------------------|-------------------|


  Q    S S S Q    E  S S S    W                   Q    S S S Q    E  S S S  
-----------0---------------|-------------------|-----------0---------------|
-------2-3---3----2--0---0-|--L----------------|-------2-3---3----2--0---0-|
-----------------------2---|-------------------|-----------------------2---|
---------------------------|-------------------|---------------------------|
---------------------------|-------------------|---------------------------|
---------------------------|-------------------|---------------------------|


  W                   Q    S S S Q    E  S S S    W                 
-------------------|-------0-------------------|-------------------|
--L----------------|---------3-2-3----3--2-0---|-------------------|
-------------------|-------------------------0-|--L----------------|
-------------------|---------------------------|-------------------|
-------------------|---------------------------|-------------------|
-------------------|---------------------------|-------------------|


  |-3-| 3        3     |-3-| |-3-|                                            
  X X X X Q.     E     X X X X X X Q.     S    E   S  E.   S  E.   S E.  S S  
--------0-3------L--|--L-----------2------L-|-----10-14---12-10------9---7-5-|
------1-------------|------------2----------|---------------------12---------|
----0---------------|----------3------------|--------------------------------|
--------------------|--------4--------------|--------------------------------|
--3-----------------|------4----------------|--------------------------------|
--------------------|----2------------------|--------------------------------|


  E  S E.  S H        S    S S  S  E.   S  E.   S Q     S  
--L----7----------------|----7-10-14---12-10------9-------|
-----7-----7-8--------L-|----------------------12------10-|
------------------------|---------------------------------|
------------------------|---------------------------------|
------------------------|---------------------------------|
------------------------|---------------------------------|


  E   S E.  S H        S    W                   W                 
--------7----------------|-------------------|-------------------|
--L-----------7--------L-|-------------------|-------------------|
------------7------------|-------------------|-------------------|
-------------------------|-------------------|-------------------|
-------------------------|-------------------|-------------------|
-----10------------------|-------------------|-------------------|


  W                   W                   W                   W                 
-------------------|-------------------|-------------------|-------------------|
-------------------|-------------------|-------------------|-------------------|
-------------------|-------------------|-------------------|-------------------|
-------------------|-------------------|-------------------|-------------------|
-------------------|-------------------|-------------------|-------------------|
-------------------|-------------------|-------------------|-------------------|


  W                   W                   Q    S S S Q    E  S S S  
-------------------|-------------------|-----------0---------------|
-------------------|-------------------|-------2-3---3----2--0---0-|
-------------------|-------------------|-----------------------2---|
-------------------|-------------------|---------------------------|
-------------------|-------------------|---------------------------|
-------------------|-------------------|---------------------------|


  W                   Q    S S S Q    E  S S S    W                 
-------------------|-----------0---------------|-------------------|
--L----------------|-------2-3---3----2--0---0-|--L----------------|
-------------------|-----------------------2---|-------------------|
-------------------|---------------------------|-------------------|
-------------------|---------------------------|-------------------|
-------------------|---------------------------|-------------------|


                                                  |-3-| 3        3   
  Q    S S S Q    E  S S S    W                   X X X X Q.     E   
-------0-------------------|-------------------|--------0-3------L--|
---------3-2-3----3--2-0---|-------------------|------1-------------|
-------------------------0-|--L----------------|----0---------------|
---------------------------|-------------------|--------------------|
---------------------------|-------------------|--3-----------------|
---------------------------|-------------------|--------------------|


  |-3-| |-3-|                                          
  X X X X X X Q.     S    S S S E  S S E  S S E  E  S  
--L-----------2------L-|------------------------------|
------------2----------|------------------------------|
----------3------------|------------------------------|
--------4--------------|---------------0----0-2-----2-|
------4----------------|------2-4----4----2------2----|
----2------------------|----2------2------------------|


  S S S E  S S E  S S E  E  S    S S S E  S S E  S S E  E  S  
------------------------------|----------------------0-----2-|
----------------------------0-|--L-----2----2-3----3---------|
---------------0----0-3-------|------0----2------0------2----|
--L---2-4----4----------------|----0-------------------------|
----3------0------2------4----|------------------------------|
------------------------------|------------------------------|


  S S S E  S S E  S S E  E.     S S S E  S S E  S S E  E  S  
--L---2-4----4-5----5-6------|------------------------------|
-----------------------------|------------------------------|
----2------1-------------6---|------------------------------|
------------------5----------|---------------0----0-2-----2-|
-----------------------------|------2-4----4----2------2----|
-----------------------------|----2------2------------------|


  S S S E  S S E  S S E  E  S    S S S E  S S E  S S E  E  S  
------------------------------|----------------------0-----2-|
----------------------------0-|--L-----2----2-3----3---------|
---------------0----0-3-------|------0----2------0------2----|
--L---2-4----4----------------|----0-------------------------|
----3------0------2------4----|------------------------------|
------------------------------|------------------------------|


  S S S E  S S E  S S E  E.     Q    S S S Q    E  S S S    W                 
--L---2-4----4-5----5-7------|---------------------------|-------------------|
-----------------------------|-----------5---------0---0-|--L----------------|
----2------1-----------------|-------6-7---7----6----2---|-------------------|
------------------5----------|---------------------------|-------------------|
-------------------------7---|---------------------------|-------------------|
-----------------------------|---------------------------|-------------------|


  Q    S S S Q    E  S S S    W                   Q    S S S Q    E  S S S  
-----------0---------------|-------------------|-------0-------------------|
-------2-3---3----2--0---0-|--L----------------|---------3-2-3----3--2-0---|
-----------------------2---|-------------------|-------------------------0-|
---------------------------|-------------------|---------------------------|
---------------------------|-------------------|---------------------------|
---------------------------|-------------------|---------------------------|


                      |-3-| 3        3     |-3-| |-3-|           
  W                   X X X X Q.     E     X X X X X X Q.     S  
-------------------|--------0-3------L--|--L-----------2------L-|
-------------------|------1-------------|------------2----------|
--L----------------|----0---------------|----------3------------|
-------------------|--------------------|--------4--------------|
-------------------|--3-----------------|------4----------------|
-------------------|--------------------|----2------------------|


  E   S  E.   S  E.   S E.  S S    E  S E.  S H        S  
-----10-14---12-10------9---7-5-|--L----7----------------|
---------------------12---------|-----7-----7-8--------L-|
--------------------------------|------------------------|
--------------------------------|------------------------|
--------------------------------|------------------------|
--------------------------------|------------------------|


  S S  S  E.   S  E.   S Q     S    E   S E.  S H        S    W                 
----7-10-14---12-10------9-------|--------7----------------|-------------------|
----------------------12------10-|--L-----------7--------L-|-------------------|
---------------------------------|------------7------------|-------------------|
---------------------------------|-------------------------|-------------------|
---------------------------------|-------------------------|-------------------|
---------------------------------|-----10------------------|-------------------|


  W                   W                   H           W                 
-------------------|-------------------|-----------|-------------------|
-------------------|-------------------|-----------|-------------------|
-------------------|-------------------|-----------|-------------------|
-------------------|-------------------|-----------|-------------------|
-------------------|-------------------|-----------|-------------------|
-------------------|-------------------|-----------|-------------------|


  H           S S S E  S S E  S S E  E  S    S S S E  S S E  S S E  E  S  
-----------|------------------------------|------------------------------|
-----------|------------------------------|----------------------------0-|
-----------|------------------------------|---------------0----0-3-------|
-----------|---------------0----0-2-----2-|--L---2-4----4----------------|
-----------|------2-4----4----2------2----|----3------0------2------4----|
-----------|----2------2------------------|------------------------------|


  S S S E  S S E  S S E  E  S    S S S E  S S E  S S E  E.   
----------------------0-----2-|--L---2-4----4-5----5-6------|
--L-----2----2-3----3---------|-----------------------------|
------0----2------0------2----|----2------1-------------6---|
----0-------------------------|------------------5----------|
------------------------------|-----------------------------|
------------------------------|-----------------------------|


  S S S E  S S E  S S E  E  S    S S S E  S S E  S S E  E  S  
------------------------------|------------------------------|
------------------------------|----------------------------0-|
------------------------------|---------------0----0-3-------|
---------------0----0-2-----2-|--L---2-4----4----------------|
------2-4----4----2------2----|----3------0------2------4----|
----2------2------------------|------------------------------|


  S S S E  S S E  S S E  E  S    S S S E  S S E  S S E  E.   
----------------------0-----2-|--L---2-4----4-5----5-6------|
--L-----2----2-3----3---------|-----------------------------|
------0----2------0------2----|----2------1-------------6---|
----0-------------------------|------------------5----------|
------------------------------|-----------------------------|
------------------------------|-----------------------------|


  S S S E  S S E  S S E  E  S    S S S E  S S E  S S E  E  S  
------------------------------|------------------------------|
------------------------------|----------------------------0-|
------------------------------|---------------0----0-3-------|
---------------0----0-2-----2-|--L---2-4----4----------------|
------2-4----4----2------2----|----3------0------2------4----|
----2------2------------------|------------------------------|


  S S S E  S S E  S S E  E  S    S S S E  S S E  S S E  E.   
----------------------0-----2-|--L---2-4----4-5----5-6------|
--L-----2----2-3----3---------|-----------------------------|
------0----2------0------2----|----2------1-------------6---|
----0-------------------------|------------------5----------|
------------------------------|-----------------------------|
------------------------------|-----------------------------|


  S S S E  S S E  S S E  E  S    S S S E  S S E  S S E  E  S  
------------------------------|------------------------------|
------------------------------|----------------------------0-|
------------------------------|---------------0----0-3-------|
---------------0----0-2-----2-|--L---2-4----4----------------|
------2-4----4----2------2----|----3------0------2------4----|
----2------2------------------|------------------------------|


  S S S E  S S E  S S E  E  S    S S S E  S S E  S S E  E.   
----------------------0-----2-|--L---2-4----4-5----5-6------|
--L-----2----2-3----3---------|-----------------------------|
------0----2------0------2----|----2------1-------------6---|
----0-------------------------|------------------5----------|
------------------------------|-----------------------------|
------------------------------|-----------------------------|


  W                   W                   S S S S S S S S S S S S S S S S  
-------------------|-------------------|--------2-----0-------------------|
-------------------|-------------------|------0---------3-----0-2-----0---|
-------------------|-------------------|--------------------0-----------2-|
-------------------|-------------------|----4-----0-4-----0---------2-----|
-------------------|-------------------|--2-----------------------0-------|
-------------------|-------------------|----------------------------------|


  S S S S S S S H        S             
---------------------------|----|----||
---------------------------|----|----||
--------4------------------|----|----||
------4-----0-0-4--------L-|----|----||
----4----------------------|----|----||
--2-------3----------------|----|----||











Guitar # 2:


                 Bm            G      A         F#m     G      Em             
     H           E  S S E  S S E  S S E  S S    E   S S E  S S E  S S E  S S  
E||-----------|--2--2-2-2--2-2---------------|-------------------------------|
B||-----------|--3--3-3-3--3-3-0--0-0-2--2-2-|--2---2-2-0--0-0-0--0-0-0--0-0-|
G||-----------|--4--4-4-4--4-4-0--0-0-2--2-2-|--2---2-2-0--0-0-0--0-0-0--0-0-|
D||-----------|--4--4-4-4--4-4-0--0-0-2--2-2-|--4---4-4-0--0-0-2--2-2-2--2-2-|
A||-----------|--2--2-2-2--2-2-2--2-2-0--0-0-|--4---4-4-2--2-2-2--2-2-2--2-2-|
E||-----------|----------------3--3-3--------|--2---2-2-3--3-3-0--0-0-0--0-0-|


  Bm            G      A         D      G5     D5             
  E  S S E  S S E  S S E  S S    E  S S E  S S E  S S E  S S  
--2--2-2-2--2-2---------------|------------------------------|
--3--3-3-3--3-3-0--0-0-2--2-2-|--3--3-3-3--3-3-3--3-3-3--3-3-|
--4--4-4-4--4-4-0--0-0-2--2-2-|--2--2-2-0--0-0-2--2-2-2--2-2-|
--4--4-4-4--4-4-0--0-0-2--2-2-|--0--0-0-0--0-0-0--0-0-0--0-0-|
--2--2-2-2--2-2-2--2-2-0--0-0-|------------------------------|
----------------3--3-3--------|--2--2-2-3--3-3---------------|


  Bm            G      A         F#m     G      Em             
  E  S S E  S S E  S S E  S S    E   S S E  S S E  S S E  S S  
--2--2-2-2--2-2---------------|-------------------------------|
--3--3-3-3--3-3-0--0-0-2--2-2-|--2---2-2-0--0-0-0--0-0-0--0-0-|
--4--4-4-4--4-4-0--0-0-2--2-2-|--2---2-2-0--0-0-0--0-0-0--0-0-|
--4--4-4-4--4-4-0--0-0-2--2-2-|--4---4-4-0--0-0-2--2-2-2--2-2-|
--2--2-2-2--2-2-2--2-2-0--0-0-|--4---4-4-2--2-2-2--2-2-2--2-2-|
----------------3--3-3--------|--2---2-2-3--3-3-0--0-0-0--0-0-|


  Bm            G      A         D      G5     D5             
  E  S S E  S S E  S S E  S S    E  S S E  S S E  S S E  S S  
--2--2-2-2--2-2---------------|------------------------------|
--3--3-3-3--3-3-0--0-0-2--2-2-|--3--3-3-3--3-3-3--3-3-3--3-3-|
--4--4-4-4--4-4-0--0-0-2--2-2-|--2--2-2-0--0-0-2--2-2-2--2-2-|
--4--4-4-4--4-4-0--0-0-2--2-2-|--0--0-0-0--0-0-0--0-0-0--0-0-|
--2--2-2-2--2-2-2--2-2-0--0-0-|------------------------------|
----------------3--3-3--------|--2--2-2-3--3-3---------------|


  Bm            G      A         F#m     G      Em             
  E  S S E  S S E  S S E  S S    E   S S E  S S E  S S E  S S  
--2--2-2-2--2-2---------------|-------------------------------|
--3--3-3-3--3-3-0--0-0-2--2-2-|--2---2-2-0--0-0-0--0-0-0--0-0-|
--4--4-4-4--4-4-0--0-0-2--2-2-|--2---2-2-0--0-0-0--0-0-0--0-0-|
--4--4-4-4--4-4-0--0-0-2--2-2-|--4---4-4-0--0-0-2--2-2-2--2-2-|
--2--2-2-2--2-2-2--2-2-0--0-0-|--4---4-4-2--2-2-2--2-2-2--2-2-|
----------------3--3-3--------|--2---2-2-3--3-3-0--0-0-0--0-0-|


  Bm            G      A         D      G5     D5             
  E  S S E  S S E  S S E  S S    E  S S E  S S E  S S E  S S  
--2--2-2-2--2-2---------------|------------------------------|
--3--3-3-3--3-3-0--0-0-2--2-2-|--3--3-3-3--3-3-3--3-3-3--3-3-|
--4--4-4-4--4-4-0--0-0-2--2-2-|--2--2-2-0--0-0-2--2-2-2--2-2-|
--4--4-4-4--4-4-0--0-0-2--2-2-|--0--0-0-0--0-0-0--0-0-0--0-0-|
--2--2-2-2--2-2-2--2-2-0--0-0-|------------------------------|
----------------3--3-3--------|--2--2-2-3--3-3---------------|


  A             D5     D         G                    Em      
  E  S S E  S S E  S S E  S S    E  S S E  S S E  S S E  S S  
------------------------------|------------------------------|
--2--2-2-2--2-2-3--3-3-3--3-3-|--0--0-0-0--0-0-0--0-0-0--0-0-|
--2--2-2-2--2-2-2--2-2-2--2-2-|--0--0-0-0--0-0-0--0-0-0--0-0-|
--2--2-2-2--2-2-0--0-0-0--0-0-|--0--0-0-0--0-0-0--0-0-2--2-2-|
--0--0-0-0--0-0---------------|--2--2-2-2--2-2-2--2-2-2--2-2-|
-----------------------2--2-2-|--3--3-3-3--3-3-3--3-3-0--0-0-|


  A             D5     D         G             D             
  E  S S E  S S E  S S E  S S    E  S S E  S S E  E  E  S S  
------------------------------|----------------2--2--2--2-2-|
--2--2-2-2--2-2-3--3-3-3--3-3-|--0--0-0-0--0-0-3--3--3--3-3-|
--2--2-2-2--2-2-2--2-2-2--2-2-|--0--0-0-0--0-0-2--2--2--2-2-|
--2--2-2-2--2-2-0--0-0-0--0-0-|--0--0-0-0--0-0-0--0--0--0-0-|
--0--0-0-0--0-0---------------|--2--2-2-2--2-2--------------|
-----------------------2--2-2-|--3--3-3-3--3-3--------------|


  A             D5     D         Em                             C         
  E  S S E  S S E  S S E  S S    E  S S E  S S E  S S E  S S    H         
------------------------------|--0--0-0-0--0-0-0--0-0-0--0-0-|-----------|
--2--2-2-2--2-2-3--3-3-3--3-3-|--0--0-0-0--0-0-0--0-0-0--0-0-|--1--------|
--2--2-2-2--2-2-2--2-2-2--2-2-|--0--0-0-0--0-0-0--0-0-0--0-0-|--0--------|
--2--2-2-2--2-2-0--0-0-0--0-0-|--2--2-2-2--2-2-2--2-2-2--2-2-|--2--------|
--0--0-0-0--0-0---------------|--2--2-2-2--2-2-2--2-2-2--2-2-|--3--------|
-----------------------2--2-2-|--0--0-0-0--0-0-0--0-0-0--0-0-|-----------|


  F#                                                                      
  H           E  S S E  S S E  S S E  S S    E  S S E  S S E  S S E  S S  
-----------|--2--2-2-2--2-2---------------|------------------------------|
--2--------|--3--3-3-3--3-3-0--0-0-2--2-2-|--2--2-2-0--0-0-0--0-0-0--0-0-|
--3--------|--4--4-4-4--4-4-0--0-0-2--2-2-|--2--2-2-0--0-0-0--0-0-0--0-0-|
--4--------|--4--4-4-4--4-4-0--0-0-2--2-2-|--4--4-4-0--0-0-2--2-2-2--2-2-|
--4--------|--2--2-2-2--2-2-2--2-2-0--0-0-|--4--4-4-2--2-2-2--2-2-2--2-2-|
--2--------|----------------3--3-3--------|--2--2-2-3--3-3-0--0-0-0--0-0-|


  E  S S E  S S E  S S E  S S    E  S S E  S S E  S S E  S S  
--2--2-2-2--2-2---------------|------------------------------|
--3--3-3-3--3-3-0--0-0-2--2-2-|--3--3-3-3--3-3-3--3-3-3--3-3-|
--4--4-4-4--4-4-0--0-0-2--2-2-|--2--2-2-0--0-0-2--2-2-2--2-2-|
--4--4-4-4--4-4-0--0-0-2--2-2-|--0--0-0-0--0-0-0--0-0-0--0-0-|
--2--2-2-2--2-2-2--2-2-0--0-0-|------------------------------|
----------------3--3-3--------|--2--2-2-3--3-3---------------|


  E  S S E  S S E  S S E  S S    E  S S E  S S E  S S E  S S  
--2--2-2-2--2-2---------------|------------------------------|
--3--3-3-3--3-3-0--0-0-2--2-2-|--2--2-2-0--0-0-0--0-0-0--0-0-|
--4--4-4-4--4-4-0--0-0-2--2-2-|--2--2-2-0--0-0-0--0-0-0--0-0-|
--4--4-4-4--4-4-0--0-0-2--2-2-|--4--4-4-0--0-0-2--2-2-2--2-2-|
--2--2-2-2--2-2-2--2-2-0--0-0-|--4--4-4-2--2-2-2--2-2-2--2-2-|
----------------3--3-3--------|--2--2-2-3--3-3-0--0-0-0--0-0-|


  E  S S E  S S E  S S E  S S    E  S S E  S S E  S S E  S S  
--2--2-2-2--2-2---------------|------------------------------|
--3--3-3-3--3-3-0--0-0-2--2-2-|--3--3-3-3--3-3-3--3-3-3--3-3-|
--4--4-4-4--4-4-0--0-0-2--2-2-|--2--2-2-0--0-0-2--2-2-2--2-2-|
--4--4-4-4--4-4-0--0-0-2--2-2-|--0--0-0-0--0-0-0--0-0-0--0-0-|
--2--2-2-2--2-2-2--2-2-0--0-0-|------------------------------|
----------------3--3-3--------|--2--2-2-3--3-3---------------|


  E  S S E  S S E  S S E  S S    E  S S E  S S E  S S E  S S  
--2--2-2-2--2-2---------------|------------------------------|
--3--3-3-3--3-3-0--0-0-2--2-2-|--2--2-2-0--0-0-0--0-0-0--0-0-|
--4--4-4-4--4-4-0--0-0-2--2-2-|--2--2-2-0--0-0-0--0-0-0--0-0-|
--4--4-4-4--4-4-0--0-0-2--2-2-|--4--4-4-0--0-0-2--2-2-2--2-2-|
--2--2-2-2--2-2-2--2-2-0--0-0-|--4--4-4-2--2-2-2--2-2-2--2-2-|
----------------3--3-3--------|--2--2-2-3--3-3-0--0-0-0--0-0-|


  E  S S E  S S E  S S E  S S    E  S S E  S S E  S S E  S S  
--2--2-2-2--2-2---------------|------------------------------|
--3--3-3-3--3-3-0--0-0-2--2-2-|--3--3-3-3--3-3-3--3-3-3--3-3-|
--4--4-4-4--4-4-0--0-0-2--2-2-|--2--2-2-0--0-0-2--2-2-2--2-2-|
--4--4-4-4--4-4-0--0-0-2--2-2-|--0--0-0-0--0-0-0--0-0-0--0-0-|
--2--2-2-2--2-2-2--2-2-0--0-0-|------------------------------|
----------------3--3-3--------|--2--2-2-3--3-3---------------|


  E  S S E  S S E  S S E  S S    E  S S E  S S E  S S E  S S  
------------------------------|------------------------------|
--2--2-2-2--2-2-3--3-3-3--3-3-|--0--0-0-0--0-0-0--0-0-0--0-0-|
--2--2-2-2--2-2-2--2-2-2--2-2-|--0--0-0-0--0-0-0--0-0-0--0-0-|
--2--2-2-2--2-2-0--0-0-0--0-0-|--0--0-0-0--0-0-0--0-0-2--2-2-|
--0--0-0-0--0-0---------------|--2--2-2-2--2-2-2--2-2-2--2-2-|
-----------------------2--2-2-|--3--3-3-3--3-3-3--3-3-0--0-0-|


  E  S S E  S S E  S S E  S S    E  S S E  S S E  E  E  S S  
------------------------------|----------------2--2--2--2-2-|
--2--2-2-2--2-2-3--3-3-3--3-3-|--0--0-0-0--0-0-3--3--3--3-3-|
--2--2-2-2--2-2-2--2-2-2--2-2-|--0--0-0-0--0-0-2--2--2--2-2-|
--2--2-2-2--2-2-0--0-0-0--0-0-|--0--0-0-0--0-0-0--0--0--0-0-|
--0--0-0-0--0-0---------------|--2--2-2-2--2-2--------------|
-----------------------2--2-2-|--3--3-3-3--3-3--------------|


  E  S S E  S S E  S S E  S S    E  S S E  S S E  S S E  S S    H         
------------------------------|--0--0-0-0--0-0-0--0-0-0--0-0-|-----------|
--2--2-2-2--2-2-3--3-3-3--3-3-|--0--0-0-0--0-0-0--0-0-0--0-0-|--1--------|
--2--2-2-2--2-2-2--2-2-2--2-2-|--0--0-0-0--0-0-0--0-0-0--0-0-|--0--------|
--2--2-2-2--2-2-0--0-0-0--0-0-|--2--2-2-2--2-2-2--2-2-2--2-2-|--2--------|
--0--0-0-0--0-0---------------|--2--2-2-2--2-2-2--2-2-2--2-2-|--3--------|
-----------------------2--2-2-|--0--0-0-0--0-0-0--0-0-0--0-0-|-----------|


  H           S S S E  S S E  S S E  E  S    S S S E  S S E  S S E  E  S  
-----------|------------------------------|------------------------------|
--2--------|------------------------------|----------------------------0-|
--3--------|------------------------------|---------------0----0-3-------|
--4--------|---------------0----0-2-----2-|--L---2-4----4----------------|
--4--------|------2-4----4----2------2----|----3------0------2------4----|
--2--------|----2------2------------------|------------------------------|


  S S S E  S S E  S S E  E  S    S S S E  S S E  S S E  E.   
----------------------0-----2-|--L---2-4----4-5----5-6------|
--L-----2----2-3----3---------|-----------------------------|
------0----2------0------2----|----2------1-------------6---|
----0-------------------------|------------------5----------|
------------------------------|-----------------------------|
------------------------------|-----------------------------|


  S S S E  S S E  S S E  E  S    S S S E  S S E  S S E  E  S  
------------------------------|------------------------------|
------------------------------|----------------------------0-|
------------------------------|---------------0----0-3-------|
---------------0----0-2-----2-|--L---2-4----4----------------|
------2-4----4----2------2----|----3------0------2------4----|
----2------2------------------|------------------------------|


  S S S E  S S E  S S E  E  S    S S S E  S S E  S S E  E.   
----------------------0-----2-|--L---2-4----4-5----5-7------|
--L-----2----2-3----3---------|-----------------------------|
------0----2------0------2----|----2------1-----------------|
----0-------------------------|------------------5----------|
------------------------------|-------------------------7---|
------------------------------|-----------------------------|


  E  S S E  S S E  S S E  S S    E  S S E  S S E  S S E  S S  
------------------------------|------------------------------|
-----------------------3--3-3-|--0--0-0-0--0-0-0--0-0-0--0-0-|
--6--6-6-6--6-6-7--7-7-2--2-2-|--0--0-0-0--0-0-0--0-0-0--0-0-|
--7--7-7-7--7-7-7--7-7-0--0-0-|--0--0-0-0--0-0-0--0-0-2--2-2-|
--7--7-7-7--7-7-5--5-5--------|--2--2-2-2--2-2-2--2-2-2--2-2-|
--5--5-5-5--5-5--------2--2-2-|--3--3-3-3--3-3-3--3-3-0--0-0-|


  E  S S E  S S E  S S E  S S    E  S S E  S S E  E  E  S S  
------------------------------|----------------2--2--2--2-2-|
--2--2-2-2--2-2-3--3-3-3--3-3-|--0--0-0-0--0-0-3--3--3--3-3-|
--2--2-2-2--2-2-2--2-2-2--2-2-|--0--0-0-0--0-0-2--2--2--2-2-|
--2--2-2-2--2-2-0--0-0-0--0-0-|--0--0-0-0--0-0-0--0--0--0-0-|
--0--0-0-0--0-0---------------|--2--2-2-2--2-2--------------|
-----------------------2--2-2-|--3--3-3-3--3-3--------------|


  E  S S E  S S E  S S E  S S    E  S S E  S S E  S S E  S S    H         
------------------------------|--0--0-0-0--0-0-0--0-0-0--0-0-|-----------|
--2--2-2-2--2-2-3--3-3-3--3-3-|--0--0-0-0--0-0-0--0-0-0--0-0-|--1--------|
--2--2-2-2--2-2-2--2-2-2--2-2-|--0--0-0-0--0-0-0--0-0-0--0-0-|--0--------|
--2--2-2-2--2-2-0--0-0-0--0-0-|--2--2-2-2--2-2-2--2-2-2--2-2-|--2--------|
--0--0-0-0--0-0---------------|--2--2-2-2--2-2-2--2-2-2--2-2-|--3--------|
-----------------------2--2-2-|--0--0-0-0--0-0-0--0-0-0--0-0-|-----------|


  H           E  S S E  S S E  S S E  S S    E  S S E  S S E  S S E  S S  
-----------|--2--2-2-2--2-2---------------|------------------------------|
--2--------|--3--3-3-3--3-3-0--0-0-2--2-2-|--2--2-2-0--0-0-0--0-0-0--0-0-|
--3--------|--4--4-4-4--4-4-0--0-0-2--2-2-|--2--2-2-0--0-0-0--0-0-0--0-0-|
--4--------|--4--4-4-4--4-4-0--0-0-2--2-2-|--4--4-4-0--0-0-2--2-2-2--2-2-|
--4--------|--2--2-2-2--2-2-2--2-2-0--0-0-|--4--4-4-2--2-2-2--2-2-2--2-2-|
--2--------|----------------3--3-3--------|--2--2-2-3--3-3-0--0-0-0--0-0-|


  E  S S E  S S E  S S E  S S    E  S S E  S S E  S S E  S S  
--2--2-2-2--2-2---------------|------------------------------|
--3--3-3-3--3-3-0--0-0-2--2-2-|--3--3-3-3--3-3-3--3-3-3--3-3-|
--4--4-4-4--4-4-0--0-0-2--2-2-|--2--2-2-0--0-0-2--2-2-2--2-2-|
--4--4-4-4--4-4-0--0-0-2--2-2-|--0--0-0-0--0-0-0--0-0-0--0-0-|
--2--2-2-2--2-2-2--2-2-0--0-0-|------------------------------|
----------------3--3-3--------|--2--2-2-3--3-3---------------|


  E  S S E  S S E  S S E  S S    E  S S E  S S E  S S E  S S  
--2--2-2-2--2-2---------------|------------------------------|
--3--3-3-3--3-3-0--0-0-2--2-2-|--2--2-2-0--0-0-0--0-0-0--0-0-|
--4--4-4-4--4-4-0--0-0-2--2-2-|--2--2-2-0--0-0-0--0-0-0--0-0-|
--4--4-4-4--4-4-0--0-0-2--2-2-|--4--4-4-0--0-0-2--2-2-2--2-2-|
--2--2-2-2--2-2-2--2-2-0--0-0-|--4--4-4-2--2-2-2--2-2-2--2-2-|
----------------3--3-3--------|--2--2-2-3--3-3-0--0-0-0--0-0-|


  E  S S E  S S E  S S E  S S    E  S S E  S S    T H.           E.  T  
--2--2-2-2--2-2---------------|----------------|-----------------------|
--3--3-3-3--3-3-0--0-0-2--2-2-|--3--3-3-3--3-3-|----2------------L---L-|
--4--4-4-4--4-4-0--0-0-2--2-2-|--2--2-2-0--0-0-|--3--------------------|
--4--4-4-4--4-4-0--0-0-2--2-2-|--0--0-0-0--0-0-|--4--------------------|
--2--2-2-2--2-2-2--2-2-0--0-0-|----------------|--4--------------------|
----------------3--3-3--------|--2--2-2-3--3-3-|--2--------------------|


  H           S S S E  S S E  S S E  E  S    S S S E  S S E  S S E  E  S  
-----------|------------------------------|------------------------------|
--L--------|------------------------------|----------------------------0-|
-----------|------------------------------|---------------0----0-3-------|
-----------|---------------0----0-2-----2-|--L---2-4----4----------------|
-----------|------2-4----4----2------2----|----3------0------2------4----|
-----------|----2------2------------------|------------------------------|


  S S S E  S S E  S S E  E  S    S S S E  S S E  S S E  E.   
----------------------0-----2-|--L---2-4----4-5----5-6------|
--L-----2----2-3----3---------|-----------------------------|
------0----2------0------2----|----2------1-------------6---|
----0-------------------------|------------------5----------|
------------------------------|-----------------------------|
------------------------------|-----------------------------|


  S S S E  S S E  S S E  E  S    S S S E  S S E  S S E  E  S  
------------------------------|------------------------------|
------------------------------|----------------------------0-|
------------------------------|---------------0----0-3-------|
---------------0----0-2-----2-|--L---2-4----4----------------|
------2-4----4----2------2----|----3------0------2------4----|
----2------2------------------|------------------------------|


  S S S E  S S E  S S E  E  S    S S S E  S S E  S S E  E.   
----------------------0-----2-|--L---2-4----4-5----5-6------|
--L-----2----2-3----3---------|-----------------------------|
------0----2------0------2----|----2------1-------------6---|
----0-------------------------|------------------5----------|
------------------------------|-----------------------------|
------------------------------|-----------------------------|


  S S S E  S S E  S S E  E  S    S S S E  S S E  S S E  E  S  
------------------------------|------------------------------|
------------------------------|----------------------------0-|
------------------------------|---------------0----0-3-------|
---------------0----0-2-----2-|--L---2-4----4----------------|
------2-4----4----2------2----|----3------0------2------4----|
----2------2------------------|------------------------------|


  S S S E  S S E  S S E  E  S    S S S E  S S E  S S E  E.   
----------------------0-----2-|--L---2-4----4-5----5-6------|
--L-----2----2-3----3---------|-----------------------------|
------0----2------0------2----|----2------1-------------6---|
----0-------------------------|------------------5----------|
------------------------------|-----------------------------|
------------------------------|-----------------------------|


  S S S E  S S E  S S E  E  S    S S S E  S S E  S S E  E  S  
------------------------------|------------------------------|
------------------------------|----------------------------0-|
------------------------------|---------------0----0-3-------|
---------------0----0-2-----2-|--L---2-4----4----------------|
------2-4----4----2------2----|----3------0------2------4----|
----2------2------------------|------------------------------|


  S S S E  S S E  S S E  E  S    S S S E  S S E  S S E  E.   
----------------------0-----2-|--L---2-4----4-5----5-6------|
--L-----2----2-3----3---------|-----------------------------|
------0----2------0------2----|----2------1-------------6---|
----0-------------------------|------------------5----------|
------------------------------|-----------------------------|
------------------------------|-----------------------------|


  W                   W                   E.  E.  S E.  S E.  S S  
-------------------|-------------------|------2---0---------------|
-------------------|-------------------|------------3---0-2---0---|
-------------------|-------------------|------------------------2-|
-------------------|-------------------|--------------------------|
-------------------|-------------------|--------------------------|
-------------------|-------------------|--------------------------|


  E  S E.  S H        S             
------------------------|----|----||
-------0----------------|----|----||
--L---------------------|----|----||
-----4-----0-4--------L-|----|----||
------------------------|----|----||
------------------------|----|----||






Duration Legend
---------------
W - whole
H - half
Q - quarter
E - 8th
S - 16th
T - 32nd
X - 64th
. - note dotted
|-n-|  - n-tuplets


Tablature Legend
----------------
L - tied note
x - dead note
g - grace note
(n) - ghost note
> - accentuded note
NH - natural harmonic
AH - artificial harmonic
TH - tapped harmonic
SH - semi harmonic
PH - pitch harmonic
h - hammer on
p - pull off
b - bend
br - bendRelease
pb - preBend
pbr - preBendRelease
brb - bendReleaseBend
\n/ - tremolo bar dip
\n - tremolo bar dive
-/n - tremolo bar Release up
/n\ - tremolo bar inverted dip
/n - tremolo bar return
-\n - tremolo bar Release down
S - shift slide
s - legato slide
/ -  slide into from below or out of upwards
\ -  slide into from above or out of downwards
~ - vibrato
W - wide vibrato
tr - trill
TP - tremolo picking
T - tapping
S - slap
P - pop
< - fade in
^ - brush up
v - brush down
comments
We did not receive enough feedback on this tab! Please rate:
print report bad tab
1 2 3 4 5
I want to post or [tab]
guest
You may want to rate the tab now too:
select rating
Please do not post tabs as comments. Select "correction" instead!