Oops, an error
Loading. Please wait.

Machine Head Tab

15,592 views 6 this week
2 commentsread comments
1 2 3 4 5
accurate
x 6
Autoscroll
+/-
esc
set tempo
stop
Contributor
Difficulty
advanced
Hey! There's an official Ultimate Guitar app which is ideal
for learning songs when you're away from computer. Get the app
WARNING: You are trying to view
                                    content from Ultimate-Guitar.com
                                    in an unauthorized application,
                                    which is prohibited.

                                    Please use an official Ultimate
                                    Guitar Tabs application for iPhone,
                                    iPad or Android to access legitimate
                                    chords, guitar, bass, and drum tabs
                                    from Ultimate-Guitar.com database.

                                    Type "ultimate guitar tabs" in Apple
                                    App Store's or Android Market's
                                    search to find the application.
Artist: Deep Purple
Album: Machine Head
Year: 1972

1. Highway Star
2. Maybe I'm A Leo
3. Pictures of Home
4. Never Before
5. Smoke on the Water
6. Lazy
7. Space Truckin

Deep Purple, Highway Star

  (1)                                
 |--7^--|  = bend (one whole step)    
   \       = slide down               
   /       = slide up                 
 ~~~~~~~   = tremelo                 

 Intro

         G5          Fsus2          C            Fsus2
 E|| -----------|-------------|-----1-------|------------- ||
 B|| ----3------|------1------|-----1-------|------1------ ||
 G|| ----0------|------0------|-----0-------|------0------ ||
 D|| ----5------|------3------|-----2-------|------3------ ||
 A|| -----------|-------------|-------------|------------- ||
 E|| -----------|-------------|-------------|------------- ||

         G5          Fsus2          G5
 E|| -----------|-------------|-------------|------3------ ||
 B|| ----3------|------1------|-----1-------|------0------ ||
 G|| ----0------|------0------|-----0-------|------0------ ||
 D|| ----5------|------3------|-----2-------|------5------ ||
 A|| -----------|-------------|-------------|------5------ ||
 E|| -----------|-------------|-------------|------------- ||

 E|| ---------------------------------|--------------------------------- ||
 B|| ---------------------------------|--------------------------------- ||
 G|| ---------------------------------|--------------------------------- ||
 D|| ---------------------------------|--------------------------------- ||
 A|| -5---5---5---5---5---5---5---5---|-5---5---5---5---5---5---5---5--- ||
 E|| -3---3---3---3---3---3---3---3---|-3---3---3---3---3---3---3---3--- ||

 E|| ---------------------------------|--------------------------------- ||
 B|| ---------------------------------|--------------------------------- ||
 G|| ---------------------------------|--------------------------------- ||
 D|| ---------------------------------|--------------------------------- ||
 A|| -5---5---5---5---5---5---5---5---|-5---5---5---5---5---5---5---5--- ||
 E|| -3---3---3---3---3---3---3---3---|-3---3---3---3---3---3---3---3--- ||

 E|| ---------------------------------|--------------------------------- ||
 B|| ---------------------------------|--------------------------------- ||
 G|| ---3-------0---3--------0---3----|---3--------0---3--------0---5--- ||
 D|| ---3-------0---3--------0---3----|---3--------0---3--------0---5--- ||
 A|| ---------------------------------|--------------------------------- ||
 E|| ---------------------------------|--------------------------------- ||

 E|| ---------------------------------|--------------------------------- ||
 B|| ---------------------------------|--------------------------------- ||
 G|| ---3-------0---3--------0---3----|---3--------0---3--------0---5--- ||
 D|| ---3-------0---3--------0---3----|---3--------0---3--------0---5--- ||
 A|| ---------------------------------|--------------------------------- ||
 E|| ---------------------------------|--------------------------------- ||

 E|| ---------------------------------|--------------------------------- ||
 B|| ---------------------------------|--------------------------------- ||
 G|| ---3-----0---3---------0---3-----|---0---3------0---3------5---0--- ||
 D|| ---3-----0---3---------0---3-----|---0---3------0---3------5---0--- ||
 A|| ---------------------------------|--------------------------------- ||
 E|| ---------------------------------|--------------------------------- ||

 E|| ---------------------------------|--------------------------------- ||
 B|| ---------------------------------|--------------------------------- ||
 G|| ---3---3---3---0---0---0---0--0--|--3---3---3---0---0---0---0---0-- ||
 D|| ---3---3---3---0---0---0---0--0--|--3---3---3---0---0---0---0---0-- ||
 A|| ---------------------------------|--------------------------------- ||
 E|| ---------------------------------|--------------------------------- ||

 E|| ---------------------------------|--------------------------------- ||
 B|| ---------------------------------|--------------------------------- ||
 G|| ---3-----0---3--------0---3------|---0---3-----0---3---3---3---5--- ||
 D|| ---2-----0---0--------0---3------|---0---3-----0---3---3---3---5--- ||
 A|| ---------------------------------|--------------------------------- ||
 E|| ---------------------------------|--------------------------------- ||

                                           C       Bb
 E|| ---------------------------------|-------------------- ||
 B|| ---------------------------------|----5--------3------ ||
 G|| ---3------0------3------0--------|----5--------3------ ||
 D|| ---3------0------3------0--------|----5--------3------ ||
 A|| ---------------------------------|----3--------1------ ||
 E|| ---------------------------------|-------------------- ||

 Verses 1 & 2

     1.      No   -body      gonna      take      my     car,       I'm
     2.      No   -body      gonna      take      my     girl,      I'm
 E|| ---------------------------------|--------------------------------- ||
 B|| ---------------------------------|--------------------------------- ||
 G|| ---------------------------------|--------------------------------- ||
 D|| ---------------------------------|--------------------------------- ||
 A|| ---------5---5---5---5---5---5---|-5---5---5---5---5---5---5---5--- ||
 E|| --1 / 3--3---3---3---3---3---3---|-3---3---3---3---3---3---3---3--- ||

   gonna   race   it   to  the   ground.
   gonna   keep   her  to  the   end.
 E|| ---------------------------------|--------------------------------- ||
 B|| ---------------------------------|--------------------------------- ||
 G|| ---------------------------------|--3-----------5------------3----- ||
 D|| ---------------------------------|--3-----------5------------3----- ||
 A|| -5---5---5---5---5---5---5---5---|--------------------------------- ||
 E|| -3---3---3---3---3---3---3---3---|--------3------------3----------- ||

         A  -  No  -  body    gonna    beat    my     car,   It's   gonna
         A  -  No  -  body    gonna    have    my    girl,   She   stays
 E|| ---------------------------------|--------------------------------- ||
 B|| ---------------------------------|--------------------------------- ||
 G|| ---------------------------------|-----------------5-------5------- ||
 D|| ---------------------------------|-----------------5-------5------- ||
 A|| -5---5---5---5---5---5---5---5---|-5---5---5---5------------------- ||
 E|| -3---3---3---3---3---3---3---3---|-3---3---3---3-------3-------3--- ||

      break   the   speed   of         sound.
      close     on    ev  -  'ry       bend.
 E|| ---------------------------------|--------------------------------- ||
 B|| ---------------------------------|--------------------------------- ||
 G|| ---------------------------------|--3-----------5------------3----- ||
 D|| ---------------------------------|--3-----------5------------3----- ||
 A|| -5---5---5---5---5---5---5---5---|--------------------------------- ||
 E|| -3---3---3---3---3---3---3---3---|--------3------------3----------- ||

             Ooh,             It's  a  killin'  machine.
             Ooh,            She's  a  killin'  machine.
 E|| ---------------------------------|--------------------------------- ||
 B|| ---------------------------------|--------------------------------- ||
 G|| ---------------------------------|--------------------------------- ||
 D|| ---------------------------------|--------------------------------- ||
 A|| ---------3---3---3---3---3---3---|--3---3---3---3---3---3---3---3-- ||
 E|| ---1-----1---1---1---1---1---1---|--1---1---1---1---1---1---1---1-- ||

      It's  got a - ev - 'ry  thing,
      She's got a - ev - 'ry  thing,
 E|| ---------------------------------|--------------------------------- ||
 B|| ---------------------------------|--------------------------------- ||
 G|| ---------------------------------|--------------------------------- ||
 D|| ---------------------------------|------------2------1------0------ ||
 A|| --3---3---3---3---3---3---3------|--3---------3------2------1------ ||
 E|| --1---1---1---1---1---1----------|-------3------------------------- ||

                     like    a    drivin'   power,
                     like    a    movin'    mouth,
              D               Dsus4             D
 E|| ---------2-----------------3-----|---------2----------------------- ||
 B|| ---------3-----------------3-----|---------3----------------------- ||
 G|| ---------2----------2------2-----|---------2----------------------- ||
 D|| ----0---------------0------------|---------0----------------------- ||
 A|| ---------------------------------|--------------------------------- ||
 E|| ---------------------------------|--------------------------------- ||

         big   fat   tires  and   ev  -  'ry  thing.
         body     control   and   ev  -  'ry  thing.
              D               Dsus4             D
 E|| ---------2-----------------3-----|---------2----------------------- ||
 B|| ---------3-----------------3-----|---------3----------------------- ||
 G|| ---------2----------2------2-----|---------2----------------------- ||
 D|| ----0---------------0------------|---------0-------------7--------- ||
 A|| ---------------------------------|-----------------------0--------- ||
 E|| ---------------------------------|--------------------------------- ||

            I  love  it                      and  I  need  it!
            I  love  her                     and  I  need  her!
 E|| ---------------------------------|--------------------------------- ||
 B|| ---------------------------------|--------------------------------- ||
 G|| ----------------------------5----|---------------------------5----- ||
 D|| --------7---7---7---7---7---5----|-------7---7---7---7---7---5----- ||
 A|| ----0---0---0---0---0---0--------|-------0---0---0---0---0--------- ||
 E|| ----0----------------------------|--------------------------------- ||

        I  bleed  it!
        I  seed  her!
 E|| ---------------------------------|--------------------------------- ||
 B|| ---------------------------------|--------------------------------- ||
 G|| ---------------------------5-----|---------5-----------------5----- ||
 D|| -----7---7---7---7---7-----5-----|-----7---5------------7----5----- ||
 A|| -----0---0---0---0---0-----------|-----0----------------0---------- ||
 E|| ---------------------------------|--------------------------------- ||

             Yeah,  it's  a  wild     hurricane!
             Yeah,  she  turns  me    on!                          C
 E|| ---------------------------------|----------------------------8---- ||
 B|| ---------------------------------|----------------------------8---- ||
 G|| ---5------------------------5----|----------------------------9---- ||
 D|| ---5----7---7---7---7---7---5----|-------7---7---7---7--------10--- ||
 A|| --------0---0---0---0---0--------|-------0---0---0---0---0----10--- ||
 E|| ---------------------------------|----------------------------8---- ||

   Al   -   right,           hold           tight,              I'm
              D                C               D                 C
 E|| --------------------------8------|--------------------------8------ ||
 B|| ---------7----------------8------|--------7-----------------8------ ||
 G|| ---------7----------------9------|--------7-----------------9------ ||
 D|| ---------7----------------10-----|--------7-----------------10----- ||
 A|| -----0---5----------------10-----|----0---5-----------------10----- ||
 E|| --------------------------8------|--------------------------8------ ||

                   a             high      -     way        star!
         C          D            F               Gm             A
 E|| ----8----------------------------|----------10-------------12------ ||
 B|| ----8----------7------------10---|----------11-------------14------ ||
 G|| ----9----------7------------10---|----------12-------------14------ ||
 D|| ----10---------7------------10---|----------12-------------14------ ||
 A|| ----10----0----5-------0----8----|----------10-------------12------ ||
 E|| ----8----------------------------|--------------------------------- ||

 E|| ---------------------------------|----------------------12-\ ------ ||
 B|| ---------------------------------|----------------------14-\ ------ ||
 G|| ---------------------------------|----------------------14-\ ------ ||
 D|| ---------------------------------|--------------------------------- ||
 A|| ---------------------------------|--------------------------------- ||
 E|| ---------------------------------|--------------------------------- ||

                                            C           Bb
 E|| ---------------------------------|--------------------------------- ||
 B|| ---------------------------------|-----5------------3-------------- ||
 G|| ---------------------------------|-----5------------3-------------- ||
 D|| ------7--------------------------|-----5------------3-------------- ||
 A|| ------0--------------------------|-----3------------1-------------- ||
 E|| ---------------------------------|--------------------------------- ||

 E|| ---------------------------------|--------------------------------- ||
 B|| ---------------------------------|--------------------------------- ||
 G|| ---------------------------------|--------------------------------- ||
 D|| ------7--------------------------|--------------------------------- ||
 A|| ------0--------------------------|--------------------0------------ ||
 E|| ---------------------------------|--------------------------------- ||

 Organ solo begins

 Repeat 8x
 E|| ---------------------------------|--------------------------------- ||
 B|| ---------------------------------|--------------------------------- ||
 G|| ---------------------------------|--------------------------------- ||
 D|| ---------------------------------|--------------------------------- ||
 A|| ----5----5---5---5---5---5---5---|-5---5---5---5---5---5---5--5--5- ||
 E|| ---------------------------------|--------------------------------- ||

 Then the following chords:

 Measure 1:   8 x Am
 Measure 2:   8 x E\G#
 Measure 3:   8 x Gm
 Measure 4:   8 x D\F#

 E|| ---------------------------------|--------------------------------- ||
 B|| ---------------------------------|--------------------------------- ||
 G|| ---------------------------------|--------------------------------- ||
 D|| ---------------------------------|--------------------------------- ||
 A|| ---------------------------------|--------------------------------- ||
 E|| --1---1---0---1---1---1---0---1--|--1---1---1---1---1---1---0---0-- ||

 E|| ---------------------------------|--------------------------------- ||
 B|| ---------------------------------|--------------------------------- ||
 G|| ---------------------------------|--------------------------------- ||
 D|| ---------------------------------|--------------------------------- ||
 A|| --5---5---5---0---5---5------0---|--5---5---5---0---5---5---5---5-- ||
 E|| ---------------------------------|--------------------------------- ||

 E|| ---------------------------------|--------------------------------- ||
 B|| ---------------------------------|--------------------------------- ||
 G|| ---------------------------------|--------------------------------- ||
 D|| -------------5----7----5----7----|-------------5----7----5----7---- ||
 A|| ---0-----7------------------0----|---------7------------------0---- ||
 E|| ---------------------------------|--------------------------------- ||

                                          (.25)
 E|| ---------------------------------|--------------------------------- ||
 B|| ---------------------------------|--------------------------------- ||
 G|| ----------------------------5----|----5^-------------------------- ||
 D|| --------7----5----7----5---------|--------7---5---7--------5---7--- ||
 A|| ---------------------------------|---------------------0----------- ||
 E|| ---------------------------------|--------------------------------- ||

 E|| ---------------------------------|--------------------------------- ||
 B|| ---------------------------------|--------------------------------- ||
 G|| ---------------------------------|--------------------------------- ||
 D|| -7-----7-----5---7------5--8-----|------7------5---7------5---7---- ||
 A|| -0----------------------------0--|--------------------------------- ||
 E|| ---------------------------------|--------------------------------- ||

 E|| ---------------------------------|--------------------------------- ||
 B|| ---------------------------------|--------------------------------- ||
 G|| ---------------------------------|--------------------------------- ||
 D|| ---------------------------------|--------------------------------- ||
 A|| ----5----5---5---5---5---5---5---|-5---5---5---5---5---5---5--5--5- ||
 E|| ---------------------------------|--------------------------------- ||

 Repeat 4x
 E|| ---------------------------------|--------------------------------- ||
 B|| ---------------------------------|--------------------------------- ||
 G|| ---------------------------------|---10--------12--------10-------- ||
 D|| ---------------------------------|---10--------12--------10-------- ||
 A|| ---------------------------------|--------------------------------- ||
 E|| -10--10--10--10--10--10--10--10--|--------10--------10------------- ||

 E|| ---------------------------------|--------------------------------- ||
 B|| ---------------------------------|--------------------------------- ||
 G|| ------------------------5----5---|---7----------------------7------ ||
 D|| ----------3---5---7--------------|--------------------------------- ||
 A|| --3---5--------------------------|--------------------------------- ||
 E|| ---------------------------------|--------------------------------- ||

 E|| ---------------------------------|--------------------------------- ||
 B|| ---------------------------------|--------------------------------- ||
 G|| ---7---5-------------------------|-----------------------5--------- ||
 D|| -----------7---6---5---3---------|-----------------------5----3---- ||
 A|| --------------------------5------|--3--------------------3----1---- ||
 E|| ---------------------------------|--------------------------------- ||

 Verses 3 & 4

           3. No  -  body    gonna      take    my      head,   I  got
           4. No  -  body    gonna      take    my     car  I'm  gonna
 E|| ---------------------------------|--------------------------------- ||
 B|| ---------------------------------|--------------------------------- ||
 G|| ---------------------------------|--------------------------------- ||
 D|| ---------------------------------|-------------------------5------- ||
 A|| ---------5---5---5---5---5---5---|-5---5---5---5---5---5---5------- ||
 E|| --1 / 3--3---3---3---3---3---3---|-3---3---3---3---3---3----------- ||

      speed   in - side   my   brain.
        race  it   to   the   ground.
                                        Bb5         C5           Bb5
 E|| ---------------------------------|--------------------------------- ||
 B|| ---------------------------------|--------------------------------- ||
 G|| ---------------------------------|--3-----------5------------3----- ||
 D|| ---------5-----5-----------5-----|--3-----------5------------3----- ||
 A|| ---------5-----5----5------5-----|--1-----------3------------1----- ||
 E|| -3---3--------------3------------|--------3------------3----------- ||

          A  -  no  - body    gonna    steal my  head   now  that   I'm
          A  -  no  - body    gonna    beat  my  car,   it's   gonna
 E|| ---------------------------------|--------------------------------- ||
 B|| ---------------------------------|--------------------------------- ||
 G|| ---------------------------------|--------------------------------- ||
 D|| ---------------------------------|--------------------------------- ||
 A|| -5---5---5---5---5---5---5---5---|-5---5---5---5---5---5---5---5--- ||
 E|| -3---3---3---3---3---3---3---3---|-3---3---3---3---3---3---3---3--- ||

     on   the      road     a  -  gain.
      break  the  speed   of    sound.
                                        Bb5         C5           Bb5
 E|| ---------------------------------|--------------------------------- ||
 B|| ---------------------------------|--------------------------------- ||
 G|| ---------------------------------|--3-----------5------------3----- ||
 D|| ---------------------------------|--3-----------5------------3----- ||
 A|| -5---5---5---5---5---5---5---5---|--1-----------5------------1----- ||
 E|| -3---3---3---3---3---3---3---3---|--------3------------3----------- ||

              Ooh,              I'm  in  heavan     again.
              Ooh,              It's  a   killin,    machine.
 E|| ---------------------------------|--------------------------------- ||
 B|| ---------------------------------|--------------------------------- ||
 G|| ---------------------------------|--------------------------------- ||
 D|| ---------------------------------|--------------------------------- ||
 A|| ---------------------------------|--------------------------------- ||
 E|| --1------1---1---1---1---1---1---|--1---1---1---1---1---1---1---1-- ||

       I     got   a - ev - 'ry thing,
       It's  got   a - ev - 'ry thing,
 E|| ---------------------------------|--------------------------------- ||
 B|| ---------------------------------|--------------------------------- ||
 G|| ---------------------------------|--------2-------1--------0------- ||
 D|| ---------------------------------|--------3-------2--------1------- ||
 A|| ---------------------------------|--------------------------------- ||
 E|| --1---1---1---1---1---1---1---1--|---1----------------------------- ||

                       like   a    mov - in'     ground,
                       like   a    driv - in'     power,
              D             Dsus4          D
 E|| ---------2---------------3-------|----2---------------------------- ||
 B|| ---------3---------------3-------|----3---------------------------- ||
 G|| ---------2---------------2-------|----2----------------------2----- ||
 D|| ----0----------------------------|---------------------------0----- ||
 A|| ---------------------------------|---------------------------0----- ||
 E|| ---------------------------------|--------------------------------- ||

       throttle con - trol   and ev - 'ry thing.
        big  fat tires       and ev - 'ry thing.
        D                      Dsus4          D
 E|| ---2------------------------3----|-------2------------------------- ||
 B|| ---3------------------------3----|-------3------------------------- ||
 G|| ---2------------------------2----|-------2---------------2--------- ||
 D|| ---0------------------------0----|-------0---------------0--------- ||
 A|| ---------------------------------|------------------------------0-- ||
 E|| ---------------------------------|--------------------------------- ||

            I  love  it                      and  I  need  it!
            I  love  it                      and  I  need  it!
 E|| ---------------------------------|--------------------------------- ||
 B|| ---------------------------------|--------------------------------- ||
 G|| ----------------------------5----|---------------------------5----- ||
 D|| --------7---7---7---7---7---5----|-------7---7---7---7---7---5----- ||
 A|| ----0---0---0---0---0---0--------|-------0---0---0---0---0--------- ||
 E|| ----0----------------------------|--------------------------------- ||

        I  seed   it!
        I  bleed  it!
 E|| ---------------------------------|--------------------------------- ||
 B|| ---------------------------------|--------------------------------- ||
 G|| ---------------------------5-----|---------5-----------------5----- ||
 D|| -----7---7---7---7---7-----5-----|-----7---5------------7----5----- ||
 A|| -----0---0---0---0---0-----------|-----0----------------0---------- ||
 E|| ---------------------------------|--------------------------------- ||

                   Eight  cylinders,  all mine!
                   Yeah,  it's a  mad hurricane                    C
 E|| ---------------------------------|----------------------------8---- ||
 B|| ---------------------------------|----------------------------8---- ||
 G|| ---5------------------------5----|----------------------------9---- ||
 D|| ---5----7---7---7---7---7---5----|-------7---7---7---7--------10--- ||
 A|| --------0---0---0---0---0--------|-------0---0---0---0---0----10--- ||
 E|| ---------------------------------|----------------------------8---- ||

   Al   -   right,           hold           tight,              I'm
              D                C               D                 C
 E|| --------------------------8------|--------------------------8------ ||
 B|| ---------7----------------8------|--------7-----------------8------ ||
 G|| ---------7----------------9------|--------7-----------------9------ ||
 D|| ---------7----------------10-----|--------7-----------------10----- ||
 A|| -----0---5----------------10-----|----0---5-----------------10----- ||
 E|| --------------------------8------|--------------------------8------ ||

                   a             high      -     way        star!
         C          D            F               Gm             A
 E|| ----8----------------------------|----------10-------------12------ ||
 B|| ----8----------7------------10---|----------11-------------14------ ||
 G|| ----9----------7------------10---|----------12-------------14------ ||
 D|| ----10---------7------------10---|----------12-------------14------ ||
 A|| ----10----0----5-------0----8----|----------10-------------12------ ||
 E|| ----8----------------------------|--------------------------------- ||

 E|| ---------------------------------|-------------------20------------ ||
 B|| ---------------------------------|--------------------------------- ||
 G|| ---------------------------------|-----------19-------------------- ||
 D|| ---------------------------------|--------------------------------- ||
 A|| ---------------------------------|--------------------------------- ||
 E|| ---------------------------------|--------------------------------- ||

                                                                 (1) ~~~~~~
 E|| ---------------------------------|--------------------------------- ||
 B|| ---------------------------------|-------------------------13^----- ||
 G|| ---------------------------------|---------------------10---------- ||
 D|| -----7---------------------------|-----------------12-------------- ||
 A|| -----0---------------------------|--------------------------------- ||
 E|| ---------------------------------|--------------------------------- ||

                              (1)          ~~~~~~~~~~~~             (1)
 E|| ---------------------------------|-----------------------------12^- ||
 B|| ------------------------13^------|-------------------------10------ ||
 G|| --------------------10-----------|----10------10\-/10-------------- ||
 D|| ----------------12---------------|--------------------------------- ||
 A|| ---------------------------------|--------------------------------- ||
 E|| ---------------------------------|--------------------------------- ||

                    (.25)          ~~~~~~~~~                    (1)~~~~~~~~~
 E|| -12--12--10--0-------------------|--------------------------------- ||
 B|| ---------------------------------|------------------------13^-/0--- ||
 G|| ----------------10^------12--10--|----10\-2----------10------------ ||
 D|| ---------------------12----------|------------/12------------------ ||
 A|| ---------------------------------|--------------------------------- ||
 E|| ---------------------------------|--------------------------------- ||

                              (1)          ~~~~~~~~~~~~             (1)
 E|| ---------------------------------|-----------------------------12^- ||
 B|| ------------------------13^------|-------------------------10------ ||
 G|| --------------------10-----------|----10------10\-/10-------------- ||
 D|| ----------------12---------------|--------------------------------- ||
 A|| ---------------------------------|--------------------------------- ||
 E|| ---------------------------------|--------------------------------- ||

                   (.25)          ~~~~~~~~~~~~~~~~~~~         (1)
 E|| -12--12--10--0-------------------|--------------------------------- ||
 B|| ---------------------------------|------------------------8^------- ||
 G|| ----------------10^------12--10--|-----------10-------------------- ||
 D|| ---------------------12----------|--------------------------------- ||
 A|| ---------------------------------|--------------------------------- ||
 E|| ---------------------------------|--------------------------------- ||

           (1)               (1)             (1)                (1)
 E|| ---------------------------------|--------------------------------- ||
 B|| ------8^----------------8^-------|------8^-----------------8^------ ||
 G|| ---------------------------------|--------------------------------- ||


Maybe I'm A Leo

Intro (riff)

       Fm                                 Cm                        Eb  E
-----|-----------------|-----------------|-----------------|-----------------|
-----|-----------------|-----------------|-----------------|-----------------|
-----|------------1----|------------3-1--|-----------------|-----------------|
-----|-3-3-1--1-3---3--|-3-3-1--1-3------|------------1----|-----------------|
-----|------3----------|------3----------|-3-3-1--1-3---3--|-3-3-1--1---2----|
-----|-----------------|-----------------|------3----------|------3----------|

       Fm                                 Cm                        Eb  Bb
-----|-----------------|-----------------|-----------------|-----------------|
-----|-----------------|-----------------|-----------------|-----------------|
-----|------------1----|------------3-1--|-----------------|-----------------|
-----|-3-3-1--1-3---3--|-3-3-1--1-3------|------------1----|--------1--------|
-----|------3----------|------3----------|-3-3-1--1-3---3--|-3-3-1------1----|
-----|-----------------|-----------------|------3----------|------3----------|




Fm  Cm Eb Bb  Cm

  Cm
  Peeping round the door, I got a big surprise

                 Bb Cm          Eb  Bb     Fm
-----|-----------------|-----------------|-1-
-----|-----------------|-----------------|-1-
-----|-0---------------|-0---------------|-1-
-----|---3-1--1-3------|---3-1--1--------|-3-
-----|------3-----1-3--|------3-----1----|-3-
-----|-----------------|-----------------|-1-

  Fm
  Couldn't see a thing, but         open skies

                 Bb Cm          Eb  Bb     G7
-----|-----------------|-----------------|-3-
-----|-----------------|-----------------|-3-
-----|-0---------------|-0---------------|-4-
-----|---3-1--1-3------|---3-1--1--------|-3-
-----|------3-----1-3--|------3-----1----|-5-
-----|-----------------|-----------------|-3-

          G7              F     Eb Bb  Cm
  They've taken her away, where is she now

  Verse 2
  Wish that she was here, I wish she'd hold my hand
  Maybe she would laugh, maybe understand
  Why was I so cruel, where is she now

Guitar solo: Cm

Organ solo: Cm

Riff

  Verse 3
  Acting like a fool, I had to make her cry
  Maybe I'm a Leo, but I ain't a lion
  I'm hurting oh so bad, I want her now

Riff (second guitar solo)


Deep Purple - "Pictures Of Home"              

Intro.
E|--------------------------------------------------------|-------------------|
H|--------------------------------------------------------|-------------------|
G|--------------------7-------------11--9--7--------7--12-|-------------------|
D|----------4---7--9-----9--7--9~~------------9--7--------|----------4--7--9--|
A|----5--7------------------------------------------------|----5--7-----------|
E|-7------------------------------------------------------|-7-----------------|

E|--------------14-14-14-14-12-14-14-14-14-15p14p12---------------------------|
H|--------------------------------------------------15p14p12------------------|
G|------------------------------------------------------------14--------------|
D|-7-------------------------------------------------------------14-----------|
A|---9--7--9~~------------------------------------------------------14--------|
E|----------------------------------------------------------------------------|

  Verse.
E|-----------------------------------------------------------|----------------|
H|-----------------------------------------------------------|----------------|
G|-----------------------------------------------------------|----------------|
D|-----------------------------------------------------------|----------------|
A|-2--2-2-2--2-2-2--2-2-2--2-2-2--2-2-2--2-2-2--2-2-2--2-2-2-|-5--5-5-5---7---|
E|-----------------------------------------------------------|----------------|

E|--------|-------------------------------------------------------------------|
H|--------|-------------------------------------------------------------------|
G|--------|-------------------------------------------------------------------|
D|--------|-------------------------------------------------------------------|
A|-7-7-7--|--2--2-2-2-2--2-2-2--7--7-7-7-7--7-7-7---2--2-2-2-2--2-2-2--7--7-7-|
E|--------|-------------------------------------------------------------------|

E|------------------------|---------------------------------------------------|
H|------------------------|---------------------------------------------------|
G|------------------------|---------------------------------------------------|
D|------------------------|---------------------------------------------------|
A|-7-7--7-7-7--2--2-2-2-2-|-3-----5-------------------------------------------|
E|------------------------|--------------3-----2----3-2-2-2--3-2-2-2--3-2-2-2-|

That's the basic thing. Listen to the song to get the feel and structure of
the song. Left out a few minor things and the solo. 

Never Before

INTRO
drums lead in!  play in 4th position (lots of stretches!)

VERSE
                                                    
(1,2,3 repeat verse)
                                                     
    (4 to chorus)
    D  E             D  E            (D)      (A)    
   (E)
E|----------------|----------------|--------------------|----------------|
B|----------------|----------------|--------------------|----------------|
G|----------------|----------------|--------------------|----------------|
D|--7--9----9--9--|--7--9----9--9--|----4-7-------7-7---|----------------|
A|--5--7----7--7--|--5--7----7--7--|--5------4-7------5-|--7-------------|
E|----------------|----------------|--------------------|----4---5--7----|
    Somebody        Somebody          Come to my side
    I'm tired       I'm crying        I'm sick inside


CHORUS

(B bluesy shuffle thingy)         D  A/C# G/B  A
G-G6... A-A6...
Help me now, please my friend, I  ne-ver  felt so bad
be-fore

                                      (1st chorus: to
verse)
                                      (2nd chorus: to
bridge)
                                      (3rd chorus: to
ending)
G G6....        A
never bever be- fore                            
              |-------------|------|---------------|
              |-------------|------|---------------|
              |-------------|------|---------------|
              |-7------7-5--|-(5)--|-----7------5--|
              |-7--4-7------|------|-5-7---5--7----|
              |-5-----------|------|---------------|


BRIDGE                                               
              
C                     F           Ab                 C
I was hurt when I was younger     by a woman who was
cold
                                                     
                      
C                             F            Ab        
             C
She took my name She took my  body           Then she
threw away my soul
                                                     
      
                              |-----------|-----|
                              |-----------|-----|
                              |-----------|-----|
                              |-----------|-----|
                              |--7-5-3-1--|-----|
                              |-----------|--4--|


SOLO (in Bm... modal is good!) 16 bars then back to
verse                                


ENDING 3 x verse then:

    E   (drums here)  D  E                           
    
|-------------|-----|---------|
|-------------|-----|---------|
|-------------|-----|---------|
|--9----------|-----|-7--9-9-9|
|--7----------|-----|-5--7-7-7|
|-------------|-----|---------|


Smoke on The Water

Gtr I (E A D G B E) - 'Ritchie Balckmore lead'
Gtr II (E A D G B E) - 'Rhythm'

   Intro
    Q=112
   4/4
    Gtr I
    E E E E Q  E E   E E E E Q  Q    E E E E Q  E E   E Q.   +Q   Q    5x
||-----------------|---------------|----------------|------------------||
||o----------------|---------------|----------------|-----------------o||
||--0---3---5----0-|---3---6-5-----|-0---3---5----3-|---0----(0)-------||
||--0---3---5----0-|---3---6-5-----|-0---3---5----3-|---0----(0)-------||
||o----------------|---------------|----------------|-----------------o||
||-----------------|---------------|----------------|------------------||


  E E E E Q  E E   E E E E Q  Q    E E E E Q  E E   E Q.   +Q    Q
|----------------|---------------|----------------|--------------------|
|----------------|---------------|----------------|--------------------|
|-0---3---5----0-|---3---6-5-----|-0---3---5----3-|---0----(0)---------|
|-0---3---5----0-|---3---6-5-----|-0---3---5----3-|---0----(0)--(5)\---|
|----------------|---------------|----------------|-------------(5)\---|
|----------------|---------------|----------------|--------------------|


 Verse
  PM----------------------------------------------|     PM------------|
  E E e E E E e E   E E e E E E e E   E E e E E E e E   E E e E E E e E
|-----------------|-----------------|-----------------|------------------|
|-----------------|-----------------|-----------------|------------------|
|-----------------|-----------------|-0---0-----------|---------0---0----|
|-----5-------5---|-----5-------5---|---0-----3---3---|-----5-----0------|
|---5-------5-----|---5-------5-----|-----------3-----|---5--------------|
|-3-------3-------|-3-------3-------|-----------------|-3----------------|


  PM------------------------------------------------------------------|
  E E e E E E e E   E E e E E E e E   E E e E E E e E   E E e E E E e E
|-----------------|-----------------|-----------------|------------------|
|-----------------|-----------------|-----------------|------------------|
|-----------------|-----------------|-----------------|------------------|
|-----5---5---5---|-----5-------5---|-----5-------5---|-----5-------3----|
|---5-------5-----|---5-------5-----|---5-------5-----|---5-------3------|
|-3---------------|-3-------3-------|-3-------3-------|-3-------1--------|


  PM------------------------------------------------------------------|
  E E e E E E e E   E E e E E E e E   E E e E E E e E   E E e E E E e E
|-----------------|-----------------|-----------------|------------------|
|-----------------|-----------------|-----------------|------------------|
|-----------------|-----------------|-----------------|------------------|
|-----5-------5---|-----5-------5---|-----5-------5---|-----5---3---3----|
|---5-------5-----|---5-------5-----|---5-------5-----|---5-------3------|
|-3-------3-------|-3-------3-------|-3-------3-------|-3----------------|


  PM---------------------------------------------------
  E E e E E E e E   E E e E E E e E   E E e E E E e E
|-----------------|-----------------|-----------------|
|-----------------|-----------------|-----------------|
|-----------------|-----------------|-----------------|
|-----5-------5---|-----5-------5---|-----5-------5---|
|---5-------5-----|---5-------5-----|---5-------5-----|
|-3-------3-------|-3-------3-------|-3-------3-------|


 ---------------------------------|
  E E e E E E e E   E E e E E E e E
|-----------------|-------------------||
|-----------------|-------------------||
|-----------------|-------------------||
|-----5---3---3---|-----5-------5-----||
|---5-------3-----|---5-------5-------||
|-3---------------|-3-------3---------||


 Chorus
  Q  Q  H      Q  Q  H      Q  E E +H
|------------|------------|---------------|
|------------|------------|---------------|
|-------5----|------------|------0-(0)----|
|----5-------|-------6----|----0----------|
|-3----------|----6-------|---------------|
|------------|-4----------|-3-------------|


  +W           Q  Q  H      Q  Q  Q.  E
|------------|------------|---------------|
|------------|------------|---------------|
|-(0)--------|-------5----|---------------|
|------------|----5-------|-------6-------|
|------------|-3----------|----6----------|
|------------|------------|-4-------------|


  E E E E Q  E E   E E E E Q.   E   E E E E Q.   E   +E  Q.   +Q   Q
|----------------|----------------|----------------|-------------------|
|----------------|----------------|----------------|-------------------|
|-----3---5------|---3---6-5------|-----3---5----3-|-(3)---------------|
|-5---3---5----5-|---3---6-5------|-5---3---5----3-|-(3)-5----(5)------|
|-5------------5-|----------------|-5--------------|-----5----(5)------|
|----------------|----------------|----------------|-------------------|


  E E E E Q  E E   E E E E Q  Q    E E E E Q.   E   E Q.   +Q   Q
|----------------|---------------|----------------|------------------||
|----------------|---------------|----------------|------------------||
|-----3---5------|---3---6-5-----|-----3---5----3-|-------------5\---||
|-5---3---5----5-|---3---6-5-----|-5---3---5----3-|---5----(5)--5\---||
|-5------------5-|---------------|-5--------------|---5----(5)--5\---||
|----------------|---------------|----------------|------------------||


   Verse
    E E e E E E e E   E E e E E E e E   E E e E E E e E   E E e E E E e E  3x
||------------------|-----------------|-----------------|------------------||
||o-----------------|-----------------|-----------------|-----------------o||
||------------------|-----------------|-----------------|------------------||
||------5-------5---|-----5-------5---|-----5-------3---|-----5-------5----||
||o---5-------5-----|---5-------5-----|---5-------3-----|---5-------5-----o||
||--3-------3-------|-3-------3-------|-3-------1-------|-3-------3--------||


 Chorus
                            <
  Q  Q  H      Q  Q  H      W          +W           Q  Q  H      Q  Q  Q.   E
|------------|------------|----------|------------|------------|---------------|
|------------|------------|----------|------------|------------|---------------|
|-------5----|------------|-0--------|-(0)--------|-------5----|---------------|
|----5-------|-------6----|----------|------------|----5-------|-------6-------|
|-3----------|----6-------|----------|------------|-3----------|----6----------|
|------------|-4----------|-3--------|-(3)--------|------------|-4-------------|


  E E E E Q  E E   E E E E Q.   E   E E E E Q.   E   +E  Q.   +Q   Q
|----------------|----------------|----------------|-----------------|
|----------------|----------------|----------------|-----------------|
|-----3---5------|---3---6-5------|-----3---5----3-|-(3)-------------|
|-5---3---5----5-|---3---6-5------|-5---3---5----3-|-(3)-5----(5)----|
|-5------------5-|----------------|-5--------------|-----5----(5)----|
|----------------|----------------|----------------|-----------------|


  E E E E Q  E E   E E E E Q.   E   E E E E Q.   E   E  Q.   +Q    E   E
|----------------|----------------|----------------|----------------------||
|----------------|----------------|----------------|----------------------||
|-----3---5------|---3---6-5------|-----3---5----3-|------------------10--||
|-5---3---5----5-|---3---6-5------|-5---3---5----3-|----5----(5)--12------||
|-5------------5-|----------------|-5--------------|----5----(5)----------||
|----------------|----------------|----------------|----------------------||
|
| Gtr II
| W                W                W                H.            Q
|----------------|----------------|----------------|----------------------||
|----------------|----------------|----------------|----------------------||
|----------------|----------------|----------------|----------------------||
|----------------|----------------|----------------|---------------8\-----||
|----------------|----------------|----------------|---------------8\-----||
|----------------|----------------|----------------|---------------8\-----||


 Guitar Solo
   ~~                                   ~~~
   H        +E  E  a       +E   E    E  Q.      E      q    E
|---------------------------------|---------------------------|
|-----------------13pb15==(13)r13p|=11---------11b11.5--------|
|-12-------(12)-------------------|----12---------------------|
|---------------------------------|------------------------12-|
|---------------------------------|---------------------------|
|---------------------------------|---------------------------|
|
|  PM----------------------------------------------------------
|  E E E E   E  E  Q                 E  E  e E  E      E e  E
|---------------------------------|---------------------------|
|---------------------------------|---------------------------|
|---------------------------------|---------------------------|
|------5-----5--------------------|--5-----5-------------5----|
|----5---5------5-----------------|-----5--------------5------|
|--3------------------------------|-------------3-------------|


                    ~~~~
   E  e  E  S      +S   +Q      e  E
|------------------------------------|
|-------11-11b13==(11)-(11)r---11-10-|
|-10-12------------------------------|
|------------------------------------|
|------------------------------------|
|------------------------------------|
|
|------------------------------|
|  E  E  e  E       E    E   e  E
|------------------------------------|
|------------------------------------|
|--------5-------------------5-------|
|-----5------------------5-----------|
|--3----------------3----------------|
|------------------------------------|


                                                               ~~~~
         |--3--|
   e  e  S  S  S  E  e  e e  e    E  a       +e    E  a       +E   +Q     E E
|------------------------------|----------------------------------------------|
|------------------------------|--------------------------------------------8-|
|-12-14-12h14p12s10-12-10-8-10-|-10-10pb12==(10)r-10-10pb12==(10)-(10)r-------|
|------------------------------|----------------------------------------------|
|------------------------------|----------------------------------------------|
|------------------------------|----------------------------------------------|
|
|  PM--------------------------------------------------------------------------
|  E  E  e        E  E  E E  E    E           E    e           E    E   E e E
|------------------------------|----------------------------------------------|
|------------------------------|----------------------------------------------|
|------------------------------|----------------------------------------------|
|--------5----------------3h=5-|-------------------5----------------------5---|
|-----5-----------------5------|--------------5-------------------------5-----|
|--3-----------------3---------|--3---------------------------------3---------|


                              ~~~~
   E  a  +e        E  a      +E   +E   e e  E
|--------------------------------------8-------|
|-11-11-(11)pb13==11-11b13==(11)-(11)r---8-11--|
|----------------------------------------------|
|----------------------------------------------|
|----------------------------------------------|
|----------------------------------------------|
|
|------------------------------------------|
|  E      E        e          E    E   E e  E
|----------------------------------------------|
|----------------------------------------------|
|----------------------------------------------|
|------------------5---------------------5-----|
|---------5----------------------------5-------|
|--3-------------------------------3-----------|


   a      +S   S S  S  S S  S   S S  S  S S S  S S S
|----------------8-----------------------------------|
|--------------8---11-10-8---------------------------|
|-10b12==(10)r-------------11--10p8----10-8-7--------|
|-----------------------------------10--------10-8-7-|
|----------------------------------------------------|
|----------------------------------------------------|
|
|          PM-------------------------------|
|          E     E     e    E     E     E   e    E
|----------------------------------------------------|
|----------------------------------------------------|
|----------------------5--------------------3--------|
|----------------5---------(5)----------5------------|
|----------3----------------------3------------------|
|----------------------------------------------------|


                               ~
   E e e  e e e e e   E    +S  S +Q    E E E E
|-------------------|--------------------------|
|-------------------|--------------------------|
|-------------8-7-5-|-3b5==(3)r3-(3)---5-3-2-3-|
|----8-7-10-8-------|--------------------------|
|-10----------------|--------------------------|
|-------------------|--------------------------|
|
|  PM----------------------------------------|
|  E E e  E E E e E   E     E     e  E E E e E
|-------------------|--------------------------|
|-------------------|--------------------------|
|-------------------|--------------------------|
|------5--------5---|-------------5--------5---|
|----5--------5-----|-------5----------3-5-----|
|--3--------3-------|-3------------------------|


           \2.5    |
                                                                  |---3---|
  E E E E +E.     +S  +Q      a   +S  S S a   +S  S S S S S S S S S s E   E
|---------------------------|-----------3---------3-3------------------------|
|---------------------------|---------3---6b8-(6)-----6-5-3------------------|
|-2-3-2-0-(0)-----(0)-(0)---|-5b7-(5)-----------------------6-5p3---5-----3--|
|---------------------------|-------------------------------------5----------|
|---------------------------|------------------------------------------------|
|---------------------------|------------------------------------------------|
|
| PM--------------------------------------------------------------|
| E E e E  E    E      e  E        E    E         e   E   E   E   e     E
|---------------------------|------------------------------------------------|
|---------------------------|------------------------------------------------|
|---------------------------|---------------------5---------------5----------|
|-----5----------------5----|-----------5-------------5-------5--------------|
|-3-5------3----5-----------|------3----------------------3------------------|
|---------------------------|------------------------------------------------|


       |---------3---------|
  a   +q    a   +q    a   +q    S   +E.   e E
|---------------------------------------------|
|-----------------------------------------3-6-|
|-5b7-(5)---5b7-(5)---5b7-(5)---5b7-(5)-------|
|---------------------------------------------|
|---------------------------------------------|
|---------------------------------------------|
|
|      PM--------------------------------------
|      E  E         e         E E       E E E
|---------------------------------------------|
|---------------------------------------------|
|---------------------------------------------|
|-------------------5---------------------5---|
|---------5-----------------------------5---5-|
|------3------------------------3-------------|


                                          ~~
  E e E E E a    +Q.       a    +E  E e E Q.     E
|-3-------6-8b10-(8)-----|-8b10-(8)-8-6-8----------|
|---3-6-8----------------|----------------8------8-|
|------------------------|-------------------------|
|------------------------|-------------------------|
|------------------------|-------------------------|
|------------------------|-------------------------|
|
|------------------------------------------------|
| E E e E E       E  e E         E  E e E E  E e E
|------------------------|-------------------------|
|------------------------|-------------------------|
|------------------------|-------------------------|
|-----5--------------5---|------------5--------5---|
|---5-------------5------|----------5--------5-----|
|-3-------3--------------|-------3--------3--------|


                                                                ~~~~
   E  a      +S  S S  S  S  S  S S S  S e  e    e  E e  a      +E   +Q.       E
|------------------8--------8------8----8-10-|-11-13---13b15==(13)-(13)r-----13b15-|
|-11-------------8---11--8----11-8---11------|-------------------------------------|
|----10b12==(10)-----------------------------|-------------------------------------|
|--------------------------------------------|-------------------------------------|
|--------------------------------------------|-------------------------------------|
|--------------------------------------------|-------------------------------------|
|
|  PM----------------------------------------------------------------------|
|  E          E    e     E     E   E    e  E    E  E E          E    E   E Q
|--------------------------------------------|-------------------------------------|
|--------------------------------------------|-------------------------------------|
|------------------5--------------------3----|-------------------------------------|
|-------------5---------(5)--------5-------5-|-------5---------------------5-------|
|--3---------------------------3-------------|-----5------------5----3---5---------|
|--------------------------------------------|--3----------------------------------|


                                    ~~~~~
   +E   E   a       +E   E  a      +Q.     E
|-(13)-13-(13)pb15-(13)-13-13b15==(13)r---13--|
|---------------------------------------------|
|---------------------------------------------|
|---------------------------------------------|
|---------------------------------------------|
|---------------------------------------------|
|
|   Q                Q              H
|---------------------------------------------|
|---------------------------------------------|
|-----------------------------------5---------|
|--------------------5------------------------|
|---3-----------------------------------------|
|---------------------------------------------|


                                 ~~~~
    a       +E   E  E  E  a     +Q.   E
|-(13)pb15-(13)-13-10-------------------|
|---------------------13-13b15-(13)-----|
|---------------------------------------|
|---------------------------------------|
|---------------------------------------|
|---------------------------------------|
|
|            Q      Q            H
|---------------------------------------|
|---------------------------------------|
|--------------------------------5------|
|-------------------5-------------------|
|------------3--------------------------|
|---------------------------------------|


  a   +E  e a     +S  S e e E     Q     E e E E a     +H
|------------------------------------|----8-6-8-8b10==(8)---------|
|---------6--------------------------|-/8-------------------------|
|-5b7-(5)---5pb6==(5)r5-3-5-3b3.5----|----------------------------|
|---------------------------------5--|----------------------------|
|------------------------------------|----------------------------|
|------------------------------------|----------------------------|
|
|      W                                Q   Q          Q   +Q
|------1-----------------------------|--1-------------------------|
|------1-----------------------------|--1-------------------------|
|------x-----------------------------|--0-------------------------|
|------3-----------------------------|------3---------------------|
|------x-----------------------------|----------------------------|
|------1-----------------------------|-----------------1---(1)/---|


                       |---3---|   |-3--|
  +E  e e e e e e e    q   q   q   q  q Q
|-(8)-8-8-8-8-8-8-8r-|-9---9---9---9--8-----|
|--------------------|------------------6---|
|--------------------|----------------------|
|--------------------|----------------------|
|--------------------|----------------------|
|--------------------|----------------------|
|
|  E  E E E Q   E E    E E   E   E Q.     E
|--------------------|----------------------|
|--------------------|----------------------|
|-------3---5--------|---3-------6-5--------|
|--5----3---5-----5--|---3-------6-5--------|
|--5--------------5--|----------------------|
|--------------------|----------------------|


            >
            ~~~
  +Q       +H.            +H.            Q
|-----------------------|---------------------||
|-(6)b8====(6)----------|-(6)r----------------||
|-----------------------|---------------------||
|-----------------------|---------------------||
|-----------------------|---------------------||
|-----------------------|---------------------||
|
|  E     E  E  E Q.   E   +E   Q.   +Q.    E
|-----------------------|---------------------||
|-----------------------|---------------------||
|-----------3----5----3-|-(3)-----------------||
|--5--------3----5----3-|-(3)--5----(5)-------||
|--5--------------------|------5----(5)-------||
|-----------------------|---------------------||


  Gtr I
  E E E E Q  E E   E E E E Q.   E   E E E E Q.   E   +E  Q.   +Q    E   E
|----------------|----------------|----------------|-----------------------|
|----------------|----------------|----------------|-----------------------|
|-----3---5------|---3---6-5------|-----3---5----3-|-(3)-----------(5)\----|
|-5---3---5----5-|---3---6-5------|-5---3---5----3-|-(3)-5----(5)--(5)\----|
|-5------------5-|----------------|-5--------------|-----5----(5)--(5)\----|
|----------------|----------------|----------------|-----------------------|


 Verse
  PM----------------------------------------------------------------|
  E E e E E E e E   E E e E E E e E   E E e E E E e E   E E e E E e Q
|-----------------|-----------------|-----------------|-----------------|
|-----------------|-----------------|-----------------|-----------------|
|-----------------|-----------------|-----------------|-----------------|
|-----5-------5---|-----5-------5---|-----5-------3---|-----5-3---------|
|---5-------5-----|---5-------5-----|---5-------3-----|---5-------5-----|
|-3-------3-------|-3-------3-------|-3-------1-------|-3-------3-------|


  PM--------------------------------------------------------------------|
  E E e E E E e E   E E e E E E e E   E E e E E E e E   S S E e E E E e E
|-----------------|-----------------|-----------------|-------------------|
|-----------------|-----------------|-----------------|-------------------|
|-----------------|-----------------|-----------------|-------------------|
|-----5-------5---|-----5-------5---|-----5-------3---|-----5-5-------5---|
|---5-------5-----|---5-------5-----|---5-------3-----|---5---------5-----|
|-3-------3-------|-3-------3-------|-3-------1-------|-3---------3-------|


  PM------------------------------------------------------------------|
  E E e E E E e E   E E e E E E e E   E E e E E E e E   E E e E E E e E
|-----------------|-----------------|-----------------|------------------|
|-----------------|-----------------|-----------------|------------------|
|-----------------|-----------------|-----------------|------------------|
|-----5-------5---|-----5-------5---|-----5---3---3---|-----5-------5----|
|---5-------5-----|---5-------5-----|---5-------3-----|---5-------5---5--|
|-3-------3-------|-3-------3-------|-3---------------|-3-------3--------|


  PM------------------------------------------------------------------|
  E E e E E E e E   E E e E E E e E   E E e E E E e E   E E e E E E e E
|-----------------|-----------------|-----------------|------------------|
|-----------------|-----------------|-----------------|------------------|
|-----------------|-----------------|-----------------|------------------|
|-----5-------5---|-----5-------5---|-----5-------3---|-----5-------5----|
|---5-------5---5-|---5---5---5---5-|---5---5---3---3-|---5---5---5------|
|-3-------3-------|-3-------3-------|-3-------1-------|-3-------3-----3--|


 Out-Chorus
  Q  Q  H      Q  Q  Q.   E   Q  Q  E Q.
|------------|--------------|-------3------|
|------------|--------------|--------------|
|-------5----|--------------|----0----0----|
|----5-------|-------6------|----0---------|
|-3----------|----6---------|--------------|
|------------|-4------------|-3------------|


  +W           Q  Q  H      Q  Q  H
|------------|------------|------------|
|------------|------------|------------|
|-(0)--------|-------5----|------------|
|------------|----5-------|-------6----|
|------------|-3----------|----6-------|
|------------|------------|-4----------|


   4/4
    E E E E Q.   E   E E E E Q.   E   E E E E Q.   E   +E  Q.   +Q.   E   3x
||-----------------|----------------|----------------|--------------------||
||o----------------|----------------|----------------|-------------------o||
||------3---5------|---3---6-5------|-----3---5----3-|-(3)----------------||
||--5---3---5----5-|---3---6-5------|-5---3---5----3-|-(3)-5----(5)-------||
||o-5------------5-|----------------|-5--------------|-----5----(5)------o||
||-----------------|----------------|----------------|--------------------||


  PM----------------------------------------------|
  E E e E E E e E   E E e E E E e E   E E e E E E e E   E Q.   +Q    Q
|-----------------|-----------------|-----------------|--------------------|
|-----------------|-----------------|-----------------|--------------------|
|-----------------|-----------------|-----------------|--------------------|
|-----5-------5---|-----5-------5---|-5---5---3---3---|---5----(5)--(5)\---|
|---5-------5-----|---5-------5-----|---5-------3-----|---5----(5)--(5)\---|
|-3-------3-------|-3-------3-------|-----------------|--------------------|


LAZY
h=hammer r=rake ////=pronounced slide up /=slide up \=slide down
  rake=(pull-off)
 \\\\=pronounced slide down   x=muff with left thumb   v=vibrate

--------|--------|-x-|-----------------------------------|
--------|--------|-x-|---------------------------2////6v-|
--------|--------|-x-|---1-1-3-1-------1-3-1-------------|
-0-1--3-|-0-1--3-|-x-|-3---------3-1-3-------3-----------|
--------|--------|-x-|-----------------------------------|
--------|--------|-x-|-----------------------------------|


----------------------------------------|
-6-6--0--4-4---------4-6-4--------------|
-x------------0h3h5---------5-0-3-0-1---|
-x------------------------------------3-|
-x--------------------------------------|
-x--------------------------------------|


---------|-----4-6-4-6---|-----4--7r6r4-----4-|
---------|-4h6---------4-|-4h6----------4h6---|
---------|---------------|--------------------|
---------|---------------|--------------------|
---------|---------------|--------------------|
-1/////6-|---------------|--------------------|


-8b-6-4---4-6r4---|-4-----------------|
-x------6-------6-|-x--6-0-4-6-6\\\\--|
-x----------------|-x-----------------|
-x----------------|-x-----------------|
-x----------------|-x-----------------|
-x----------------|-x-----------------|


---------------------------------|
--------------------------2////6-|
---1-1-3-1-------1-3-1-----------|
-3---------3-1-3-------3---------|
---------------------------------|
---------------------------------|


-------------------------------------------|
-6-6--0--4-4-------4-6-4------------3////6-|
-x------------3h5---------5-0-3-0-1--------|
-x-----------------------------------------|
-x-----------------------------------------|
-x-----------------------------------------|


-----------------|--------------------------------|
-----------------|--------------------------------|
-----------------|--------------------------------|
---1-1-3-1-------|---1-----1--------1-3-4-3-1-----|
-3---------3-1-3-|-3---3-2---2--1h3-----------3-1-|
-----------------|--------------------------------|


------------------------------------|
-------------4h6r4------------------|
-5-5---5-5---------3h5r3--1h3r5---1-|
--------------------------------3---|
------------------------------------|
------------------------------------|


-------------------------------3///8--7-6-4-6-4----------|
-4h6r4--------------------------------x----------0-4-6-6-|
--------3h5r3--1h3r1---1h3r1----------x------------------|
---------------------3-------3--------x------------------|
--------------------------------------x------------------|
--------------------------------------x------------------|


---------------------------|-----4---6------------|
-4h6r4---4h6r4---4h6r4---4-|-4/6---6---6---4-6----|
-------5-------5-------5---|-------------------3b-|
---------------------------|----------------------|
---------------------------|----------------------|
---------------------------|----------------------|


-----4-6--7r6r4-6-4-7-4-----4-6-7---7r6r4---7r6r4---7r6r4---7r6r4---|
-4/6--------------------4/6---------------6-------6-------6-------6-|
--------------------------------------------------------------------|
--------------------------------------------------------------------|
--------------------------------------------------------------------|
--------------------------------------------------------------------|


---------------------------|------------------------------------------|
-4h6r4---------------4-----|-----4---4------4-6-4--4------------------|
-------5\3-1---1-3/5---3-1-|-4/5---5----4/5----------5\3-1------1-----|
-------------3-------------|--------------------------------1h3---1---|
---------------------------|----------------------------------------3-|
---------------------------|------------------------------------------|


---------------------------------------------------|
---------------------------------------------------|
-1h3/4\3r1----1h3/4\3r1---1h3/4\3r1----1h3/4\3r1---|
-----------3------------3-----------3------------3-|
---------------------------------------------------|
---------------------------------------------------|


--------------------------------------------------------|
--------------------------------------------------------|
-------0h2h3---0h4h5--0h2h3---------0h2h3--0h4h5--0h2h3-|
-0h2h3-----------------------0h2h3----------------------|
--------------------------------------------------------|
--------------------------------------------------------|


-------------------------------------------------------|
-------------------------------------------------------|
-------0h2h3--0h4h5--0h2h3--0h6h7--0h2h3--0h4h5--0h2h3-|
-0h2h3-------------------------------------------------|
-------------------------------------------------------|
-------------------------------------------------------|


-----------------------------------------------------|
-----4-----------------------------------------------|
-4/5---5-3r1--------1--3/5--3/5\3-1-3-1-----3-1-3/5--|
-------------3--1h3-----------------------3----------|
-----------------------------------------------------|
-----------------------------------------------------|

          ( Back to the Intro )

 At this point, the organ takes over the lead, followed
 by the lyrics.



Space Truckin

intro
----------------------|
----------------------|
----------------------|
----------------------|
------5-3----3--5-----|
-3-5------5-------3-5-|

verses

(riff 1)
 A         C       D
--------- ------- -------|
--------- ------- -------|
--------- ------- -------|
--------- ------- -------|
-7-9-7-9- -10-12- -12-14-|
-5-5-5-5- -8--8-- -10-10-|

(w/riff 1)
   A                                    C            D          A
(1)We had a lot of luck on Venus     We always had a ball on Mars
(2)Remember when we did the moonshot And Pony Trekker led the way
                                       C            D               A
Meeting all the groovey people       We've rocked the Milky Way so far
We'd move to the Canaveral moonstop  And everynaut would dance and sway
   D                  A                D                                E     E7
We danced around with Borealice      We're space truckin' round the the stars
We got music in our solar system     We're space truckin' round the stars

chorus
(riff 2)         (riff 3)
A(4x)             E(3x)           (1x)
---------------- ---------------- ---------|
---------------- ---------------- ---------|
---------------- ---------------- ---------|
---------------- ---------------- ---------|
---7-6-5-------- ---2-1-0-------- ---------|
-5--------8-7-6- -0--------3-2-1- -0-1-2-3-|
     A(w/riff 2)
Come on Come on Come on let's go Space Truckin'
     E(w/riff 3)
Come on Come on Come on Space Truckin'

(riff 4)
 Am7
-x-x-x-x--x-x-x-x--x-x-x-x-5-5-|
-x-x-x-x--x-x-x-x--x-x-x-x-5-5-|
-x-x-x-x--x-x-x-x--x-x-x-x-5-5-|
-x-x-x-x--x-x-x-x--x-x-x-x-5-5-|
-------------------------------|
-------------------------------|
   Am7(w/riff 4)
(3)The fireball that we rode was moving But now we've got a new machine
                                        C5             D5
Yeah Yeah Yeah Yeah the freaks said Man those cats can really swing
   Am7
They got music in their solar system They've rocked around the Milky Way
                                        C5             D5        E
They dance around the Borealice They're Space Truckin' everyday

solo
 A
----------------------------------5--------------------------------|
------------------------8b10-8b10---8-5----------------------------|
-----5b6--------5b6---------------------8p7-5---7-5--------5b7---0-|
-5s7-----7--5-7-----7-------------------------7-----7-5--7-----7-0-|
-------------------------------------------------------------------|
-------------------------------------------------------------------|

---5-3s5-5-3s5-----5-5-----5------------------------------------------5-------------------------|
---5-3s5-5-3s5-5-3s5-5-3s5-----8---7---5-------------------------8b10---8p5---------------------|
-----------------------------7---7---7---7-7---5b6-----5b6------------------8p7p5---7---5b6-----|
-7-------------------------------------------7-----7--------7p0-------------------7---7-----7p0-|
-0----------------------------------------------------------------------------------------------|
------------------------------------------------------------------------------------------------|

(drum solo)

Esus4  Esus4(b9) E
-5-----5--------------------------------------------------------------|
-5-----5--------------------------------------------------------------|
-4-----4---------3-4-5-6--3-4-5-6--7-8-9-10-11-12-13-14-15-16-17-18s9-|
-2-----3---------2-3-4-5--2-3-4-5--6-7-8-9--10-11-12-13-14-15-16-17s8-|
-2-----2---------1-2-3-4--1-2-3-4--5-6-7-8--9--10-11-12-13-14-15-16s7-|
-0-----0--------------------------------------------------------------|

thats it i hope u enjoy 
comments
print report bad tab
2 comments total.
0 reply
Kevin67 wrote on November 12 2006, 02:20 pm

missing solos and bends
just not up to par

0 reply
DAS Guitar Er wrote on August 4 2008, 03:29 pm

 
1*

I want to post or [tab]
guest
You may want to rate the tab now too:
select rating
Please do not post tabs as comments. Select "correction" instead!