Oops, an error
Loading. Please wait.

All Over Me Tab

ver2
ver2

Whole song

More versions @911Tabs.com
2,465 views 1 this week
no commentswrite comment
1 2 3 4 5
excellent!
x 3
Autoscroll
+/-
esc
set tempo
stop
Contributor
Difficulty
Tuning
novice
D A D G B E
WARNING: You are trying to view
                                    content from Ultimate-Guitar.com
                                    in an unauthorized application,
                                    which is prohibited.

                                    Please use an official Ultimate
                                    Guitar Tabs application for iPhone,
                                    iPad or Android to access legitimate
                                    chords, guitar, bass, and drum tabs
                                    from Ultimate-Guitar.com database.

                                    Type "ultimate guitar tabs" in Apple
                                    App Store's or Android Market's
                                    search to find the application.
All Over Me
Default
Comes and Goes (2009)

All Over Me: written by Dallas Smith, Jeremy Hora, Dave Benedict, Danny Craig,
Richard Marx, and Bob Marlette

NOTE: This is mostly just the rhythm guitar, but I threw in the lead parts that 
I know.  It's a great song and I hope someone figures out the rest.

GTR I - Drop D Tuning (e,B,G,D,A,D)
GTR II - Drop D Tuning (e,B,G,D,A,D)

Intro
  GTR I (Dist. with Reverb)
e|-----------------------------------------------------------------------|
B|-----------------------------------------------------------------------|
G|-------9-9-9------------------------------9-9-9------------------------|
D|-------------9-9-9-11-11-11-7-7-9-9-------------9-9-9-11-11-11-7-7-9\0-|
A|-0-0-0------------------------------0-0-0------------------------------|
D|-----------------------------------------------------------------------|
 |
 |GTR II
e|-----------------------------------------------------------------------|
B|-----------------------------------------------------------------------|
G|-----------------------------------------------------------------------|
D|-----------------------------------------------------------------------|
A|-----------------------------------------------------------------------|
D|-----------------------------------------------------------------------|

  GTR I                                                2x
e|-------------------------------------------------------|
B|-10------------14------------17------------------------|
G|--9-(8x)-------13-(8x)-------16-(16x)------------------|
D|--7------------11------------14------------------------|
A|-------------------------------------------------------|
D|-------------------------------------------------------|
 |
 |GTR II (Distortion)
e|-------------------------------------------------------|
B|-------------------------------------------------------|
G|-----4/6-6\4p0-----4/6-6\4p0-----4/6-6\4/6-6/9\6-6\4p0-|
D|-x-x-x-x-x-x---x-x-x-x-x-x---x-x-x-x-x-x-x-x-x-x-x-x---|
A|-x-x-2/4-4\2p0-x-x-2/4-4\2p0-x-x-2/4-4\2/4-4/7\4-4\2p0-|
D|-x-x-----------x-x-----------x-x-----------------------|

Verse
  GTR I (Dist. with Reverb)
e|-----------------------------------------------------------------------|
B|-----------------------------------------------------------------------|
G|-------9-9-9------------------------------9-9-9------------------------|
D|-------------9-9-9-11-11-11-7-7-9-9-------------9-9-9-11-11-11-7-7-9-9-|
A|-0-0-0------------------------------0-0-0------------------------------|
D|-----------------------------------------------------------------------|
 |
 |GTR II (Distortion)
e|-----------------------------------------------------------------------|
B|-----------------------------------------------------------------------|
G|-----------------------------------------------------------------------|
D|-7-7--------------------------------7-\-2------------------------------|
A|-7-7--------------------------------7-\-2------------------------------|
D|-7-7--------------------------------7-\-2------------------------------|

  GTR I (Dist. with Reverb)
e|-----------------------------------------------------------------|
B|-----------------------------------------------------------------|
G|-------9-9-9-7-7-7-6-6-6---------------9-9-9-7-7-7-6-6-6---------|
D|-------------------------7-7-7-7-------------------------7-7-7-7-|
A|-0-0-0---------------------------0-0-0---------------------------|
D|-----------------------------------------------------------------|
 |
 |GTR II (Distortion)
e|-----------------------------------------------------------------|
B|-----------------------------------------------------------------|
G|-----------------------------------------------------------------|
D|-2-/-5---------------------------5-\-0---------------------------|
A|-2-/-5---------------------------5-\-0---------------------------|
D|-2-/-5---------------------------5-\-0---------------------------|

Verse 2
  GTR I (Dist. with Reverb)
e|-----------------------------------------------------------------------|
B|-----------------------------------------------------------------------|
G|-------9-9-9------------------------------9-9-9------------------------|
D|-------------9-9-9-11-11-11-7-7-9-9-------------9-9-9-11-11-11-7-7-9-9-|
A|-0-0-0------------------------------0-0-0------------------------------|
D|-----------------------------------------------------------------------|
 |
 |GTR II (Distortion)
e|-----------------------------------------------------------------------|
B|-----------------------------------------------------------------------|
G|-----------------------------------------------------------------------|
D|-7-7=--------7-7=-------------7-7-7-7-\-2=---------2-2=----------2-2-2-|
A|-7-7=--------7-7=-------------7-7-7-7-\-2=---------2-2=----------2-2-2-|
D|-7-7=--------7-7=-------------7-7-7-7-\-2=---------2-2=----------2-2-2-|

  GTR I (Dist. with Reverb)
e|-----------------------------------------------------------------|
B|-----------------------------------------------------------------|
G|-------9-9-9-7-7-7-6-6-6---------------9-9-9-7-7-7-6-6-6---------|
D|-------------------------7-7-7-7-------------------------7-7-7-7-|
A|-0-0-0---------------------------0-0-0---------------------------|
D|-----------------------------------------------------------------|
 |
 |GTR II (Distortion)
e|-----------------------------------------------------------------|
B|-----------------------------------------------------------------|
G|-----------------------------------------------------------------|
D|-2-/-5=-------5-5=---------5-5-5-5-\-0=-------0-0=---------0-0-0-|
A|-2-/-5=-------5-5=---------5-5-5-5-\-0=-------0-0=---------0-0-0-|
D|-2-/-5=-------5-5=---------5-5-5-5-\-0=-------0-0=---------0-0-0-|

Post Verse
  GTR I
e|-------------------------------------------------|
B|-------------------------------------------------|
G|-------------------------------------------------|
D|-------------------------------------------------|
A|-------------------------------------------------|
D|-------------------------------------------------|
 |
 |GTR II (Distortion)
e|-------------------------------------------------|
B|-------------------------------------------------|
G|-------------------------------------------------|
D|-2-2-2-2-2-2-2-2-2-2-2-2-4-4-4-4-0-0-0-0-0-0-0-0-|
A|-2-2-2-2-2-2-2-2-2-2-2-2-4-4-4-4-0-0-0-0-0-0-0-0-|
D|-2-2-2-2-2-2-2-2-2-2-2-2-4-4-4-4-0-0-0-0-0-0-0-0-|

  GTR I
e|-------------------------------------------------|
B|-------------------------------------------------|
G|-------------------------------------------------|
D|-------------------------------------------------|
A|-------------------------------------------------|
D|-------------------------------------------------|
 |
 |GTR II (Distortion)
e|-------------------------------------------------|
B|-------------------------------------------------|
G|-------------------------------------------------|
D|-4-4-4-4-4-4-4-4-4-4-4-4-7-7-7-7-7-7-7-7-7-7-7-7-|
A|-4-4-4-4-4-4-4-4-4-4-4-4-7-7-7-7-7-7-7-7-7-7-7-7-|
D|-4-4-4-4-4-4-4-4-4-4-4-4-7-7-7-7-7-7-7-7-7-7-7-7-|

Pre Chorus
  GTR I
e|---------------------------------|
B|---------------------------------|
G|---------------------------------|
D|---------------------------------|
A|---------------------------------|
D|---------------------------------|
 |
 |GTR II
e|---------------------------------|
B|---------------------------------|
G|-4-4-4-4-4-4-4-4-7-7-7-7-7-7-7-7-|
D|-4-4-4-4-4-4-4-4-7-7-7-7-7-7-7-7-|
A|-2-2-2-2-2-2-2-2-5-5-5-5-5-5-5-5-|
D|---------------------------------|

Chorus
  GTR I                                                           2x
e|-----------------------------------------------------------------|
B|-10------------------------------17------------------------------|
G|--9-(16x)------------------------16-(16x)------------------------|
D|--7------------------------------14------------------------------|
A|-----------------------------------------------------------------|
D|-----------------------------------------------------------------|
 |
 |GTR II
e|-----------------------------------------------------------------|
B|-----------------------------------------------------------------|
G|-----------------------------------------------------------------|
D|-4-4-4-4-4-4-4-4-7-7-7-7-7-7-7-7-0-0-0-0-0-0-0-0-0-0-0-0-0-0-0-0-|
A|-4-4-4-4-4-4-4-4-7-7-7-7-7-7-7-7-0-0-0-0-0-0-0-0-0-0-0-0-0-0-0-0-|
D|-4-4-4-4-4-4-4-4-7-7-7-7-7-7-7-7-0-0-0-0-0-0-0-0-0-0-0-0-0-0-0-0-|

  GTR I
e|-----------------------------------------------------------------|
B|-----------------------------------------------------------------|
G|-----------------------------------------------------------------|
D|-----------------------------------------------------------------|
A|-----------------------------------------------------------------|
D|-----------------------------------------------------------------|
 |
 |GTR II
e|-----------------------------------------------------------------|
B|-----------------------------------------------------------------|
G|-----------------------------------------------------------------|
D|-4-4-4-----------7-7-7-----------0-0-0-0-0-0-0-0-0-0-0-0-0-0-0-0-|
A|-4-4-4-----------7-7-7-----------0-0-0-0-0-0-0-0-0-0-0-0-0-0-0-0-|
D|-4-4-4-----------7-7-7-----------0-0-0-0-0-0-0-0-0-0-0-0-0-0-0-0-|

  GTR I                                                          
e|-----------------------------------------------------------------|
B|-10------------------------------17------------------------------|
G|--9-(16x)------------------------16-(16x)------------------------|
D|--7------------------------------14------------------------------|
A|-----------------------------------------------------------------|
D|-----------------------------------------------------------------|
 |
 |GTR II
e|-----------------------------------------------------------------|
B|-----------------------------------------------------------------|
G|-----------------------------------------------------------------|
D|-4-4-4-4-4-4-4-4-7-7-7-7-7-7-7-7-0-0-0-0-0-0-0-0-0-0-0-0-0-0-0-0-|
A|-4-4-4-4-4-4-4-4-7-7-7-7-7-7-7-7-0-0-0-0-0-0-0-0-0-0-0-0-0-0-0-0-|
D|-4-4-4-4-4-4-4-4-7-7-7-7-7-7-7-7-0-0-0-0-0-0-0-0-0-0-0-0-0-0-0-0-|

Post Chorus
  GTR I (Dist. with Reverb)
e|-----------------------------------------------------------------------|
B|-----------------------------------------------------------------------|
G|-------9-9-9------------------------------9-9-9------------------------|
D|-------------9-9-9-11-11-11-7-7-9-9-------------9-9-9-11-11-11-7-7-9-9-|
A|-0-0-0------------------------------0-0-0------------------------------|
D|-----------------------------------------------------------------------|
 |
 |GTR II
e|-----------------------------------------------------------------------|
B|-----------------------------------------------------------------------|
G|-----------------------------------------------------------------------|
D|-----------------------------------------------------------------------|
A|-----------------------------------------------------------------------|
D|-----------------------------------------------------------------------|

Verse
  GTR I (Dist. with Reverb)
e|-----------------------------------------------------------------------|
B|-----------------------------------------------------------------------|
G|-------9-9-9------------------------------9-9-9------------------------|
D|-------------9-9-9-11-11-11-7-7-9-9-------------9-9-9-11-11-11-7-7-9-9-|
A|-0-0-0------------------------------0-0-0------------------------------|
D|-----------------------------------------------------------------------|
 |
 |GTR II (Distortion)
e|-----------------------------------------------------------------------|
B|-----------------------------------------------------------------------|
G|-----------------------------------------------------------------------|
D|-7-7--------------------------------7-\-2------------------------------|
A|-7-7--------------------------------7-\-2------------------------------|
D|-7-7--------------------------------7-\-2------------------------------|

  GTR I (Dist. with Reverb)
e|-----------------------------------------------------------------|
B|-----------------------------------------------------------------|
G|-------9-9-9-7-7-7-6-6-6---------------9-9-9-7-7-7-6-6-6---------|
D|-------------------------7-7-7-7-------------------------7-7-7-7-|
A|-0-0-0---------------------------0-0-0---------------------------|
D|-----------------------------------------------------------------|
 |
 |GTR II (Distortion)
e|-----------------------------------------------------------------|
B|-----------------------------------------------------------------|
G|-----------------------------------------------------------------|
D|-2-/-5---------------------------5-\-0---------------------------|
A|-2-/-5---------------------------5-\-0---------------------------|
D|-2-/-5---------------------------5-\-0---------------------------|

Verse 2
  GTR I (Dist. with Reverb)
e|-----------------------------------------------------------------------|
B|-----------------------------------------------------------------------|
G|-------9-9-9------------------------------9-9-9------------------------|
D|-------------9-9-9-11-11-11-7-7-9-9-------------9-9-9-11-11-11-7-7-9-9-|
A|-0-0-0------------------------------0-0-0------------------------------|
D|-----------------------------------------------------------------------|
 |
 |GTR II (Distortion)
e|-----------------------------------------------------------------------|
B|-----------------------------------------------------------------------|
G|-----------------------------------------------------------------------|
D|-7-7=--------7-7=-------------7-7-7-7-\-2=---------2-2=----------2-2-2-|
A|-7-7=--------7-7=-------------7-7-7-7-\-2=---------2-2=----------2-2-2-|
D|-7-7=--------7-7=-------------7-7-7-7-\-2=---------2-2=----------2-2-2-|

  GTR I (Dist. with Reverb)
e|-----------------------------------------------------------------|
B|-----------------------------------------------------------------|
G|-------9-9-9-7-7-7-6-6-6---------------9-9-9-7-7-7-6-6-6---------|
D|-------------------------7-7-7-7-------------------------7-7-7-7-|
A|-0-0-0---------------------------0-0-0---------------------------|
D|-----------------------------------------------------------------|
 |
 |GTR II (Distortion)
e|-----------------------------------------------------------------|
B|-----------------------------------------------------------------|
G|-----------------------------------------------------------------|
D|-2-/-5=-------5-5=---------5-5-5-5-\-0=-------0-0=---------0-0-0-|
A|-2-/-5=-------5-5=---------5-5-5-5-\-0=-------0-0=---------0-0-0-|
D|-2-/-5=-------5-5=---------5-5-5-5-\-0=-------0-0=---------0-0-0-|

Post Verse
  GTR I
e|-------------------------------------------------|
B|-------------------------------------------------|
G|-------------------------------------------------|
D|-------------------------------------------------|
A|-------------------------------------------------|
D|-------------------------------------------------|
 |
 |GTR II (Distortion)
e|-------------------------------------------------|
B|-------------------------------------------------|
G|-------------------------------------------------|
D|-2-2-2-2-2-2-2-2-2-2-2-2-4-4-4-4-0-0-0-0-0-0-0-0-|
A|-2-2-2-2-2-2-2-2-2-2-2-2-4-4-4-4-0-0-0-0-0-0-0-0-|
D|-2-2-2-2-2-2-2-2-2-2-2-2-4-4-4-4-0-0-0-0-0-0-0-0-|

  GTR I
e|-------------------------------------------------|
B|-------------------------------------------------|
G|-------------------------------------------------|
D|-------------------------------------------------|
A|-------------------------------------------------|
D|-------------------------------------------------|
 |
 |GTR II (Distortion)
e|-------------------------------------------------|
B|-------------------------------------------------|
G|-------------------------------------------------|
D|-4-4-4-4-4-4-4-4-4-4-4-4-7-7-7-7-7-7-7-7-7-7-7-7-|
A|-4-4-4-4-4-4-4-4-4-4-4-4-7-7-7-7-7-7-7-7-7-7-7-7-|
D|-4-4-4-4-4-4-4-4-4-4-4-4-7-7-7-7-7-7-7-7-7-7-7-7-|

Pre Chorus
  GTR I
e|---------------------------------|
B|---------------------------------|
G|---------------------------------|
D|---------------------------------|
A|---------------------------------|
D|---------------------------------|
 |
 |GTR II
e|---------------------------------|
B|---------------------------------|
G|-4-4-4-4-4-4-4-4-7-7-7-7-7-7-7-7-|
D|-4-4-4-4-4-4-4-4-7-7-7-7-7-7-7-7-|
A|-2-2-2-2-2-2-2-2-5-5-5-5-5-5-5-5-|
D|---------------------------------|

Chorus
  GTR I                                                           2x
e|-----------------------------------------------------------------|
B|-10------------------------------17------------------------------|
G|--9-(16x)------------------------16-(16x)------------------------|
D|--7------------------------------14------------------------------|
A|-----------------------------------------------------------------|
D|-----------------------------------------------------------------|
 |
 |GTR II
e|-----------------------------------------------------------------|
B|-----------------------------------------------------------------|
G|-----------------------------------------------------------------|
D|-4-4-4-4-4-4-4-4-7-7-7-7-7-7-7-7-0-0-0-0-0-0-0-0-0-0-0-0-0-0-0-0-|
A|-4-4-4-4-4-4-4-4-7-7-7-7-7-7-7-7-0-0-0-0-0-0-0-0-0-0-0-0-0-0-0-0-|
D|-4-4-4-4-4-4-4-4-7-7-7-7-7-7-7-7-0-0-0-0-0-0-0-0-0-0-0-0-0-0-0-0-|

  GTR I
e|-----------------------------------------------------------------|
B|-----------------------------------------------------------------|
G|-----------------------------------------------------------------|
D|-----------------------------------------------------------------|
A|-----------------------------------------------------------------|
D|-----------------------------------------------------------------|
 |
 |GTR II
e|-----------------------------------------------------------------|
B|-----------------------------------------------------------------|
G|-----------------------------------------------------------------|
D|-4-4-4-----------7-7-7-----------0-0-0-0-0-0-0-0-0-0-0-0-0-0-0-0-|
A|-4-4-4-----------7-7-7-----------0-0-0-0-0-0-0-0-0-0-0-0-0-0-0-0-|
D|-4-4-4-----------7-7-7-----------0-0-0-0-0-0-0-0-0-0-0-0-0-0-0-0-|

  GTR I                                                          
e|-----------------------------------------------------------------|
B|-10------------------------------17------------------------------|
G|--9-(16x)------------------------16-(16x)------------------------|
D|--7------------------------------14------------------------------|
A|-----------------------------------------------------------------|
D|-----------------------------------------------------------------|
 |
 |GTR II
e|-----------------------------------------------------------------|
B|-----------------------------------------------------------------|
G|-----------------------------------------------------------------|
D|-4-4-4-4-4-4-4-4-7-7-7-7-7-7-7-7-0-0-0-0-0-0-0-0-0-0-0-0-0-0-0-0-|
A|-4-4-4-4-4-4-4-4-7-7-7-7-7-7-7-7-0-0-0-0-0-0-0-0-0-0-0-0-0-0-0-0-|
D|-4-4-4-4-4-4-4-4-7-7-7-7-7-7-7-7-0-0-0-0-0-0-0-0-0-0-0-0-0-0-0-0-|

Bridge
  GTR I
e|---------------------------------------------|
B|---------------------------------------------|
G|---------------------------------------------|
D|---------------------------------------------|
A|---------------------------------------------|
D|---------------------------------------------|
 |
 |GTR II
e|---------------------------------------------|
B|---------------------------------------------|
G|---------------------------------------------|
D|-4-2-7-2-4-2-4-2-7-2-4-2-4-2-7-2-4-2-4-2-0=--|
A|-4-2-7-2-4-2-4-2-7-2-4-2-4-2-7-2-4-2-4-2-0=--|
D|-4-2-7-2-4-2-4-2-7-2-4-2-4-2-7-2-4-2-4-2-0=--|

  GTR I (Dist. with Reverb)
e|-----------------------------------------------------------------------|
B|-----------------------------------------------------------------------|
G|-------9-9-9------------------------------9-9-9------------------------|
D|-------------9-9-9-11-11-11-7-7-9-9-------------9-9-9-11-11-11-7-7-9\0-|
A|-0-0-0------------------------------0-0-0------------------------------|
D|-----------------------------------------------------------------------|
 |
 |GTR II
e|-----------------------------------------------------------------------|
B|-----------------------------------------------------------------------|
G|-----------------------------------------------------------------------|
D|-----------------------------------------------------------------------|
A|-----------------------------------------------------------------------|
D|-----------------------------------------------------------------------|

Chorus
  GTR I                                                           2x
e|-----------------------------------------------------------------|
B|-10------------------------------17------------------------------|
G|--9-(16x)------------------------16-(16x)------------------------|
D|--7------------------------------14------------------------------|
A|-----------------------------------------------------------------|
D|-----------------------------------------------------------------|
 |
 |GTR II
e|-----------------------------------------------------------------|
B|-----------------------------------------------------------------|
G|-----------------------------------------------------------------|
D|-4-4-4-4-4-4-4-4-7-7-7-7-7-7-7-7-0-0-0-0-0-0-0-0-0-0-0-0-0-0-0-0-|
A|-4-4-4-4-4-4-4-4-7-7-7-7-7-7-7-7-0-0-0-0-0-0-0-0-0-0-0-0-0-0-0-0-|
D|-4-4-4-4-4-4-4-4-7-7-7-7-7-7-7-7-0-0-0-0-0-0-0-0-0-0-0-0-0-0-0-0-|

  GTR I
e|-----------------------------------------------------------------|
B|-----------------------------------------------------------------|
G|-----------------------------------------------------------------|
D|-----------------------------------------------------------------|
A|-----------------------------------------------------------------|
D|-----------------------------------------------------------------|
 |
 |GTR II
e|-----------------------------------------------------------------|
B|-----------------------------------------------------------------|
G|-----------------------------------------------------------------|
D|-4-4-4-----------7-7-7-----------0-0-0-0-0-0-0-0-0-0-0-0-0-0-0-0-|
A|-4-4-4-----------7-7-7-----------0-0-0-0-0-0-0-0-0-0-0-0-0-0-0-0-|
D|-4-4-4-----------7-7-7-----------0-0-0-0-0-0-0-0-0-0-0-0-0-0-0-0-|

  GTR I                                                           4x
e|-----------------------------------------------------------------|
B|-10------------------------------17------------------------------|
G|--9-(16x)------------------------16-(16x)------------------------|
D|--7------------------------------14------------------------------|
A|-----------------------------------------------------------------|
D|-----------------------------------------------------------------|
 |
 |GTR II
e|-----------------------------------------------------------------|
B|-----------------------------------------------------------------|
G|-----------------------------------------------------------------|
D|-4-4-4-4-4-4-4-4-7-7-7-7-7-7-7-7-0-0-0-0-0-0-0-0-0-0-0-0-0-0-0-0-|
A|-4-4-4-4-4-4-4-4-7-7-7-7-7-7-7-7-0-0-0-0-0-0-0-0-0-0-0-0-0-0-0-0-|
D|-4-4-4-4-4-4-4-4-7-7-7-7-7-7-7-7-0-0-0-0-0-0-0-0-0-0-0-0-0-0-0-0-|

  GTR I
e|------------------------------------|
B|------------------------------------|
G|------------------------------------|
D|------------------------------------|
A|------------------------------------|
D|------------------------------------|
 |
 |GTR II
e|------------------------------------|
B|------------------------------------|
G|------------------------------------|
D|-4-4-4-----------7-7-7-----------0=-|
A|-4-4-4-----------7-7-7-----------0=-|
D|-4-4-4-----------7-7-7-----------0=-|


| =  let note ring
| /  slide up
| \  slide down
| h  hammer-on
| p  pull-off
| ~  vibrato
| +  harmonic
| x  Mute note
===============================================================================
comments
We did not receive enough feedback on this tab! Please rate:
print report bad tab
1 2 3 4 5
I want to post or [tab]
guest
You may want to rate the tab now too:
select rating
Please do not post tabs as comments. Select "correction" instead!