Oops, an error
Loading. Please wait.

Count On Me Bass Tab

ver3
ver3

Whole song

Interactive

More versions @911Tabs.com
2,765 views 9 this week
no commentswrite comment
1 2 3 4 5
please rate
Autoscroll
+/-
esc
set tempo
stop
Contributor
Difficulty
advanced
Hey! There's an official Ultimate Guitar app which is ideal
for learning songs when you're away from computer. Get the app
WARNING: You are trying to view
                                    content from Ultimate-Guitar.com
                                    in an unauthorized application,
                                    which is prohibited.

                                    Please use an official Ultimate
                                    Guitar Tabs application for iPhone,
                                    iPad or Android to access legitimate
                                    chords, guitar, bass, and drum tabs
                                    from Ultimate-Guitar.com database.

                                    Type "ultimate guitar tabs" in Apple
                                    App Store's or Android Market's
                                    search to find the application.
-------------------------------------------------------------------------------
			   COUNT ON ME - Default
-------------------------------------------------------------------------------

Tabbed By : SlapMyBass

Tuning: Standard, 5 String (B E A D G)
Tempo: 80 BPM


Intro - Pause 2 Measures

G|--------------------------------|
D|--------------Rest--------------|
A|----------------2---------------|
E|------------Measures------------|
B|--------------------------------|

  S S S S S S S s s S S s s S S s  S S S S S S S s s S S s s S S s 
G|--------------------------------|--------------------------------|
D|--------------------------------|--------------------------------|
A|--------------------------------|--------------------------------|
E|--3-4-6-------------------------|--3-4-6-------------------------|
B|4-------4-4-4-----4-4-----4-4---|4-------4-4-4-----4-4-----4-4---|

  E.    E.    Q       E   E  (S)   S S S S S S E.    S E   E   S S
G|--------------------------------|--------------------------------||
D|------------6-------6---6--(6)\-|------------4-----4-4-----------||
A|-----/6-------------------------|2-4-2---2-4-------------4---4-4-||
E|4-------------------------------|------4-------------------------||
B|--------------------------------|--------------------------------||


Verse 1

  S S S S S S S s s S S s s S S s  S S S S S S S s s S S s s S S s 
G|--------------------------------|--------------------------------|
D|--------------------------------|--------------------------------|
A|--------------------------------|--------------------------------|
E|--3-4-6-------------------------|--3-4-6-------------------------|
B|4-------4-4-4-----4-4-----4-4---|4-------4-4-4-----4-4-----4-4---|

  E.    E.    Q       E   E  (S)   S S S S S S E.    S E   E   S S
G|--------------------------------|--------------------------------|
D|------------6-------6---6--(6)\-|------------4-----4-4-----------|
A|-----/6-------------------------|2-4-2---2-4-------------4---4-4-|
E|4-------------------------------|------4-------------------------|
B|--------------------------------|--------------------------------|

  S S S S S S S s s S S s s S S s  S S S S S S S s s S S s s S S s 
G|--------------------------------|--------------------------------|
D|--------------------------------|--------------------------------|
A|--------------------------------|--------------------------------|
E|--3-4-6-------------------------|--3-4-6-------------------------|
B|4-------4-4-4-----4-4-----4-4---|4-------4-4-4-----4-4-----4-4---|

  E.    E.    Q       E   E  (S)   S S S S S S E.    S E   E   S S
G|--------------------------------|--------------------------------||
D|------------6-------6---6--(6)\-|------------4-----4-4-----------||
A|-----/6-------------------------|2-4-2---2-4-------------4---4-4-||
E|4-------------------------------|------4-------------------------||
B|--------------------------------|--------------------------------||


Pre-Chorus

  E   E   E   E   E   E   E   E    E   E   E   E   E   E   E   E
G|--------------------------------|--------------------------------|
D|--------------------------------|--------------------------------|
A|3---3---3---3---3---3---3---3---|1---1---1---1---1---1---1---1---|
E|--------------------------------|--------------------------------|
B|--------------------------------|--------------------------------|

  E   E   E   E   E   E   E   E    E   E   E   E   E   E   E   E
G|--------------------------------|--------------------------------||
D|--------------------------------|--------------------------------||
A|--------------------------------|--------------------------------||
E|4---4---4---4---4---4---4---4///|16--16--16--16--16--16--16--16--||
B|--------------------------------|--------------------------------||


Chorus

  E.    S e   E.    S E   E   S S  E.    S e   E.    S E   E   S S
G|--------------------------------|--------------------------------|
D|--------------------------------|--------------------------------|
A|--------------------------------|--------------------------------|
E|--------------------------------|6-----6-----6-----4-6---6---4-6-|
B|4-----4-----4-----4-4---4---4-4-|--------------------------------|

  E   E   E   E   E   E   E   E    E   E   E   E   E   E   E   E
G|--------------------------------|--------------------------------|
D|--------------------------------|--------------------------------|
A|4---4---4---4---4---4---4---4---|--------------------------------|
E|--------------------------------|4---4---4---4---4---4---4---4---|
B|--------------------------------|--------------------------------|

  E.    S e   E.    S E   E   S S  E.    S e   E.    S E   E   S S
G|--------------------------------|--------------------------------|
D|--------------------------------|--------------------------------|
A|--------------------------------|--------------------------------|
E|--------------------------------|6-----6-----6-----4-6---6---4-6-|
B|4-----4-----4-----4-4---4---4-4-|--------------------------------|

  E   E   E   E   E   E   E   E    E   E   E   E   H
G|--------------------------------|--------------------------------||
D|--------------------------------|--------------------------------||
A|4---4---4---4---4---4---4---4---|--------------------------------||
E|--------------------------------|4---4---4---4---4---------------||
B|--------------------------------|--------------------------------||


Fill
  
  e   e   e   e   e   e   Q
G|--------------------------------||
D|--------------------------------||
A|--------------------------------||
E|-----------------------/4\------||
B|--------------------------------||


Verse 2

  S S S S S S S s s S S s s S S s  S S S S S S S s s S S s s S S s 
G|--------------------------------|--------------------------------|
D|--------------------------------|--------------------------------|
A|--------------------------------|--------------------------------|
E|--3-4-6-------------------------|--3-4-6-------------------------|
B|4-------4-4-4-----4-4-----4-4---|4-------4-4-4-----4-4-----4-4---|

  E.    E.    Q       E   E  (S)   S S S S S S E.    S E   E   S S
G|--------------------------------|--------------------------------|
D|------------6-------6---6--(6)\-|------------4-----4-4-----------|
A|-----/6-------------------------|2-4-2---2-4-------------4---4-4-|
E|4-------------------------------|------4-------------------------|
B|--------------------------------|--------------------------------|

  S S S S S S S s s S S s s S S s  S S S S S S S s s S S s s S S s 
G|--------------------------------|--------------------------------|
D|--------------------------------|--------------------------------|
A|--------------------------------|--------------------------------|
E|--3-4-6-------------------------|--3-4-6-------------------------|
B|4-------4-4-4-----4-4-----4-4---|4-------4-4-4-----4-4-----4-4---|

  E.    E.    Q       E   E  (S)   S S S S S S E.    S E   E   S S
G|--------------------------------|--------------------------------||
D|------------6-------6---6--(6)\-|------------4-----4-4-----------||
A|-----/6-------------------------|2-4-2---2-4-------------4---4-4-||
E|4-------------------------------|------4-------------------------||
B|--------------------------------|--------------------------------||


Pre-Chorus

  E   E   E   E   E   E   E   E    E   E   E   E   E   E   E   E
G|--------------------------------|--------------------------------|
D|--------------------------------|--------------------------------|
A|3---3---3---3---3---3---3---3---|1---1---1---1---1---1---1---1---|
E|--------------------------------|--------------------------------|
B|--------------------------------|--------------------------------|

  E   E   E   E   E   E   E   E    E   E   E   E   E   E   E   E
G|--------------------------------|--------------------------------||
D|--------------------------------|--------------------------------||
A|--------------------------------|--------------------------------||
E|4---4---4---4---4---4---4---4///|16--16--16--16--16--16--16--16--||
B|--------------------------------|--------------------------------||


Chorus

  E.    S e   E.    S E   E   S S  E.    S e   E.    S E   E   S S
G|--------------------------------|--------------------------------|
D|--------------------------------|--------------------------------|
A|--------------------------------|--------------------------------|
E|--------------------------------|6-----6-----6-----4-6---6---4-6-|
B|4-----4-----4-----4-4---4---4-4-|--------------------------------|

  E   E   E   E   E   E   E   E    E   E   E   E   E   E   E   E
G|--------------------------------|--------------------------------|
D|--------------------------------|--------------------------------|
A|4---4---4---4---4---4---4---4---|--------------------------------|
E|--------------------------------|4---4---4---4---4---4---4---4---|
B|--------------------------------|--------------------------------|

  E.    S e   E.    S E   E   S S  E.    S e   E.    S E   E   S S
G|--------------------------------|--------------------------------|
D|--------------------------------|--------------------------------|
A|--------------------------------|--------------------------------|
E|--------------------------------|6-----6-----6-----4-6---6---4-6-|
B|4-----4-----4-----4-4---4---4-4-|--------------------------------|

  E   E   E   E   E   E   E   E    E   E   E   E   E   E   E   E
G|--------------------------------|--------------------------------||
D|--------------------------------|--------------------------------||
A|4---4---4---4---4---4---4---4---|--------------------------------||
E|--------------------------------|4---4---4---4---4---4---4---4---||
B|--------------------------------|--------------------------------||


Bridge

  Q.          Q.          Q        Q.          Q.          Q       
G|--------------------------------|--------------------------------|
D|--------------------------------|--------------------------------|
A|3-----------3-----------3-------|1-----------1-----------1-------|
E|--------------------------------|--------------------------------|
B|--------------------------------|--------------------------------|

  E   E   E   E   E   E   E   E    E   E   E   E   E   E   E   E
G|--------------------------------|--------------------------------||
D|--------------------------------|--------------------------------||
A|--------------------------------|--------------------------------||
E|4---4---4---4---4---4---4---4///|16--16--16--16--16--16--16--16--||
B|--------------------------------|--------------------------------||


Solo

  E.    S e   E.    S E   E   S S  E.    S e   E.    S E   E   S S
G|--------------------------------|--------------------------------|
D|--------------------------------|--------------------------------|
A|--------------------------------|--------------------------------|
E|--------------------------------|6-----6-----6-----4-6---6---4-6-|
B|4-----4-----4-----4-4---4---4-4-|--------------------------------|

  E.    S e   E.    S E   E   S S  E.    S e   E.    S E   E   S S
G|--------------------------------|--------------------------------|
D|--------------------------------|--------------------------------|
A|4-----4-----4-----4-4---4---4-4-|--------------------------------|
E|--------------------------------|4-----4-----4-----4-4---4---4-4-|
B|--------------------------------|--------------------------------|

  E.    S e   E.    S E   E   S S  E.    S e   E.    S E   E   S S
G|--------------------------------|--------------------------------|
D|--------------------------------|--------------------------------|
A|--------------------------------|--------------------------------|
E|--------------------------------|6-----6-----6-----4-6---6---4-6-|
B|4-----4-----4-----4-4---4---4-4-|--------------------------------|

  E.    S e   E.    S E   E   S S  E.    S e   E.    S E   E   S S
G|--------------------------------|--------------------------------||
D|--------------------------------|--------------------------------||
A|4-----4-----4-----4-4---4---4-4-|--------------------------------||
E|--------------------------------|4-----4-----4-----4-4---4---4-4-||
B|--------------------------------|--------------------------------||


Pre-Chorus

  E   E   E   E   E   E   E   E    E   E   E   E   E   E   E   E
G|--------------------------------|--------------------------------|
D|--------------------------------|--------------------------------|
A|3---3---3---3---3---3---3---3---|1---1---1---1---1---1---1---1---|
E|--------------------------------|--------------------------------|
B|--------------------------------|--------------------------------|

  E   E   E   E   E   E   E   E    E   E   E   E   E   E   E   E
G|--------------------------------|--------------------------------||
D|--------------------------------|--------------------------------||
A|--------------------------------|--------------------------------||
E|4---4---4---4---4---4---4---4///|16--16--16--16--16--16--16--16--||
B|--------------------------------|--------------------------------||


Chorus

  E.    S e   E.    S E   E   S S  E.    S e   E.    S E   E   S S
G|--------------------------------|--------------------------------|
D|--------------------------------|--------------------------------|
A|--------------------------------|--------------------------------|
E|--------------------------------|6-----6-----6-----4-6---6---4-6-|
B|4-----4-----4-----4-4---4---4-4-|--------------------------------|

  E   E   E   E   E   E   E   E    E   E   E   E   E   E   E   E
G|--------------------------------|--------------------------------|
D|--------------------------------|--------------------------------|
A|4---4---4---4---4---4---4---4---|--------------------------------|
E|--------------------------------|4---4---4---4---4---4---4---4---|
B|--------------------------------|--------------------------------|

  E.    S e   E.    S E   E   S S  E.    S e   E.    S E   E   S S
G|--------------------------------|--------------------------------|
D|--------------------------------|--------------------------------|
A|--------------------------------|--------------------------------|
E|--------------------------------|6-----6-----6-----4-6---6---4-6-|
B|4-----4-----4-----4-4---4---4-4-|--------------------------------|

  E   E   E   E   E   E   E   E    E   E   E   E   E   E   E   E
G|--------------------------------|--------------------------------||
D|--------------------------------|--------------------------------||
A|4---4---4---4---4---4---4---4---|--------------------------------||
E|--------------------------------|4---4---4---4---4---4---4---4---||
B|--------------------------------|--------------------------------||


Outro

  E.    S e   E.    S E   E   S S  E.    S e   E.    S E   E   S S
G|--------------------------------|--------------------------------|
D|--------------------------------|--------------------------------|
A|--------------------------------|--------------------------------|
E|--------------------------------|6-----6-----6-----4-6---6---4-6-|
B|4-----4-----4-----4-4---4---4-4-|--------------------------------|

  E   E   E   E   E   E   E   E    E   E   E   E   E   E   E   E
G|--------------------------------|--------------------------------|
D|--------------------------------|--------------------------------|
A|4---4---4---4---4---4---4---4---|--------------------------------|
E|--------------------------------|4---4---4---4---4---4---4---4---|
B|--------------------------------|--------------------------------|

  E.    S e   E.    S E   E   S S  E.    S e   E.    S E   E   S S
G|--------------------------------|--------------------------------|
D|--------------------------------|--------------------------------|
A|--------------------------------|--------------------------------|
E|--------------------------------|6-----6-----6-----4-6---6---4-6-|
B|4-----4-----4-----4-4---4---4-4-|--------------------------------|

  E   E   E   E   E   E   E   E    E   E   E   E   E   E   E   E
G|--------------------------------|--------------------------------||
D|--------------------------------|--------------------------------||
A|4---4---4---4---4---4---4---4---|--------------------------------||
E|--------------------------------|4---4---4---4---4---4---4---4---||
B|--------------------------------|--------------------------------||



Tab Information
---------------
W - Whole Note
H - Half Note
Q - Quarter Note
E - Eighth Note
S - Sixteenth Note
T - Thirty-Second Note

w - Whole Rest (lower case)
h - Half Rest
q - Quarter Rest
e - Eighth Rest
s - Sixteenth Rest
t - Thiry-Second Rest

/  - slide up
\  - slide down
h  - hammer-on
p  - pull-off
~  - vibrato
+  - harmonic
x  - Mute note
() - Tied note
.  - Dotted note

===============================================================================
comments
We did not receive enough feedback on this tab! Please rate:
print report bad tab
1 2 3 4 5
I want to post or [tab]
guest
You may want to rate the tab now too:
select rating
Please do not post tabs as comments. Select "correction" instead!