Oops, an error
Loading. Please wait.

Count On Me Tab

ver4
ver4

Whole song

Interactive

More versions @911Tabs.com
1,746 views 3 this week
no commentswrite comment
1 2 3 4 5
excellent!
x 1
Autoscroll
+/-
esc
set tempo
stop
Contributor
Difficulty
Tuning
intermediate
D# G# C# F# A# D#
Hey! There's an official Ultimate Guitar app which is ideal
for learning songs when you're away from computer. Get the app
WARNING: You are trying to view
                                    content from Ultimate-Guitar.com
                                    in an unauthorized application,
                                    which is prohibited.

                                    Please use an official Ultimate
                                    Guitar Tabs application for iPhone,
                                    iPad or Android to access legitimate
                                    chords, guitar, bass, and drum tabs
                                    from Ultimate-Guitar.com database.

                                    Type "ultimate guitar tabs" in Apple
                                    App Store's or Android Market's
                                    search to find the application.
Count On Me
Default
One Thing Remains (2005)

Words & Music by Dallas Smith, Jeremy Hora, Dave Benedict, Danny Craig, and 
Chad Kroeger

GTR I - Eb Tuning Electric "Jeremy Hora" (eb,Bb,Gb,Db,Ab,Eb)
GTR II - Eb Tuning Electric "Jeremy Hora" (eb,Bb,Gb,Db,Ab,Eb)
GTR III - Eb Tuning Acoustic "Dallas Smith" (eb,Bb,Gb,Db,Ab,Eb)

Intro

   GTR I
eb|-------------------------------------------------|
Bb|-------------------------------------------------|
Gb|--9--------9-------------------------------------|
Db|--9--------9-------------------------14----------|
Ab|--7--------7-----x-11----12----11-------12~------|
Eb|-----------------x-12----12----12----------------|

   GTR I
eb|-------------------------------------------------|
Bb|-------------------------------------------------|
Gb|--9--------9-------------------------------------|
Db|--9--------9-------------------------14----------|
Ab|--7--------7-----x-11----12----11-------12~------|
Eb|-----------------x-12----12----12----------------|

Main Riff

   GTR I,II
eb|-------------------------------------------------|
Bb|-------------------------------------------------|
Gb|--9--------9-------------------------------------|
Db|--9--------9-------------------------14----------|
Ab|--7--------7-----x-11----12----11-------12~------|
Eb|-----------------x-12----12----12----------------|

   GTR I,II
eb|-------------------------------------------------|
Bb|-------------------------------------------------|
Gb|--9--------9-------------------------------------|
Db|--9--------9-------------------------14----------|
Ab|--7--------7-----x-11----12----11-------12~------|
Eb|-----------------x-12----12----12----------------|

   GTR I,II
eb|-------------------------------------------------|
Bb|-------------------------------------------------|
Gb|-------------------------------------------------|
Db|--7--------7--------7--------7--7-----7----------|
Ab|--7--------7--------7--------7--7-----7-----x--x-|
Eb|--5--------5--------5--------5--5-----5-----x--x-|

   GTR I,II
eb|-------------------------------------------------|
Bb|-------------------------------------------------|
Gb|-------------------/5--------5--5----------------|
Db|--5--------5-------/5--------5--5-----7----------|
Ab|--5--------5-------/3--------3--3-----7-----x--x-|
Eb|--3--------3--------------------------5-----x--x-|

Verse

   GTR I,II
eb|-------------------------------------------------|
Bb|-------------------------------------------------|
Gb|--9--------9-------------------------------------|
Db|--9--------9-------------------------14----------|
Ab|--7--------7-----x-11----12----11-------12~------|
Eb|-----------------x-12----12----12----------------|

   GTR I,II
eb|-------------------------------------------------|
Bb|-------------------------------------------------|
Gb|--9--------9-------------------------------------|
Db|--9--------9-------------------------14----------|
Ab|--7--------7-----x-11----12----11-------12~------|
Eb|-----------------x-12----12----12----------------|

   GTR I,II
eb|-------------------------------------------------|
Bb|-------------------------------------------------|
Gb|-------------------------------------------------|
Db|--7--------7--------7--------7--7-----7----------|
Ab|--7--------7--------7--------7--7-----7-----x--x-|
Eb|--5--------5--------5--------5--5-----5-----x--x-|

   GTR I,II
eb|-------------------------------------------------|
Bb|-------------------------------------------------|
Gb|-------------------/5--------5--5----------------|
Db|--5--------5-------/5--------5--5-----7----------|
Ab|--5--------5-------/3--------3--3-----7-----x--x-|
Eb|--3--------3--------------------------5-----x--x-|

   GTR I,II
eb|-------------------------------------------------|
Bb|-------------------------------------------------|
Gb|--9--------9-------------------------------------|
Db|--9--------9-------------------------14----------|
Ab|--7--------7-----x-11----12----11-------12~------|
Eb|-----------------x-12----12----12----------------|

   GTR I,II
eb|-------------------------------------------------|
Bb|-------------------------------------------------|
Gb|--9--------9-------------------------------------|
Db|--9--------9-------------------------14----------|
Ab|--7--------7-----x-11----12----11-------12~------|
Eb|-----------------x-12----12----12----------------|

   GTR I,II
eb|-------------------------------------------------|
Bb|-------------------------------------------------|
Gb|-------------------------------------------------|
Db|--7--------7--------7--------7--7-----7----------|
Ab|--7--------7--------7--------7--7-----7-----x--x-|
Eb|--5--------5--------5--------5--5-----5-----x--x-|

   GTR I,II
eb|-------------------------------------------------|
Bb|-------------------------------------------------|
Gb|-------------------/5--------5--5-----5-----5----|
Db|--5--------5-------/5--------5--5-----5-----5----|
Ab|--5--------5-------/3--------3--3-----3-----3----|
Eb|--3--------3-------------------------------------|

Pre Chorus

   GTR I,II
eb|-------------------------------------------------|
Bb|-------------------------------------------------|
Gb|--6-----6-----6-----6-----6-----6-----6----(6)-6-|
Db|--6-----6-----6-----6-----6-----6-----6----(6)-6-|
Ab|--4-----4-----4-----4-----4-----4-----4----(4)-4-|
Eb|-------------------------------------------------|

   GTR I,II
eb|-------------------------------------------------|
Bb|-------------------------------------------------|
Gb|--4-----4-----4-----4-----4-----4-----4-----4----|
Db|--4-----4-----4-----4-----4-----4-----4-----4----|
Ab|--2-----2-----2-----2-----2-----2-----2-----2----|
Eb|-------------------------------------------------|

   GTR I,II
eb|-------------------------------------------------|
Bb|-------------------------------------------------|
Gb|--2-----2-----2-----2-----2-----2-----2-----2----|
Db|--2-----2-----2-----2-----2-----2-----2-----2----|
Ab|--0-----0-----0-----0-----0-----0-----0-----0----|
Eb|-------------------------------------------------|
  |
  |GTR III
eb|--0-----0-----0-----0--0--0-----0-----0-----0--0-|
Bb|--0-----0-----0-----0--0--0-----0-----0-----0--0-|
Gb|--2-----2-----2-----2--2--2-----2-----2-----2--2-|
Db|--2-----2-----2-----2--2--2-----2-----2-----2--2-|
Ab|--0-----0-----0-----0--0--0-----0-----0-----0--0-|
Eb|-------------------------------------------------|

   GTR I,II
eb|-------------------------------------------------|
Bb|-------------------------------------------------|
Gb|--2-----2-----2-----2-----2-----2-----2-----2----|
Db|--2-----2-----2-----2-----2-----2-----2-----2----|
Ab|--0-----0-----0-----0-----0-----0-----0-----0----|
Eb|-------------------------------------------------|
  |
  |GTR III
eb|--0-----0-----0-----0--0--0-----0--0--0--0--0--0-|
Bb|--0-----0-----0-----0--0--0-----0--0--0--0--0--0-|
Gb|--2-----2-----2-----2--2--2-----2--2--2--2--2--2-|
Db|--2-----2-----2-----2--2--2-----2--2--2--2--2--2-|
Ab|--0-----0-----0-----0--0--0-----0--0--0--0--0--0-|
Eb|-------------------------------------------------|

Chorus

   GTR I,II
eb|-------------------------------------------------|
Bb|-------------------------------------------------|
Gb|-------------------------------------------------|
Db|--2--------2--2-----2--------2--2-----2-----2--2-|
Ab|--2--------2--2-----2--------2--2-----2-----2--2-|
Eb|--0--------0--0-----0--------0--0-----0-----0--0-|
  |
  |GTR III
eb|--0--------0--0-----0--------0--0-----0-----0--0-|
Bb|--0--------0--0-----0--------0--0-----0-----0--0-|
Gb|--0--------0--0-----0--------0--0-----0-----0--0-|
Db|--2--------2--2-----2--------2--2-----2-----2--2-|
Ab|--2--------2--2-----2--------2--2-----2-----2--2-|
Eb|--0--------0--0-----0--------0--0-----0-----0--0-|

   GTR I,II
eb|-------------------------------------------------|
Bb|-------------------------------------------------|
Gb|--4--------4--4-----4--------4--4-----4-----4--4-|
Db|--4--------4--4-----4--------4--4-----4-----4--4-|
Ab|--2--------2--2-----2--------2--2-----2-----2--2-|
Eb|-------------------------------------------------|
  |
  |GTR III
eb|--0--------0--0-----0--------0--0-----0-----0--0-|
Bb|--0--------0--0-----0--------0--0-----0-----0--0-|
Gb|--4--------4--4-----4--------4--4-----4-----4--4-|
Db|--4--------4--4-----4--------4--4-----4-----4--4-|
Ab|--2--------2--2-----2--------2--2-----2-----2--2-|
Eb|-------------------------------------------------|

   GTR I,II
eb|-------------------------------------------------|
Bb|--3--------3--3-----3--------3--3-----3-----3--3-|
Gb|--2--------2--2-----2--------2--2-----2-----2--2-|
Db|--0--------0--0-----0--------0--0-----0-----0--0-|
Ab|--0--------0--0-----0--------0--0-----0-----0--0-|
Eb|-------------------------------------------------|
  |
  |GTR III
eb|-------------------------------------------------|
Bb|--3--------3--3-----3--------3--3-----3-----3--3-|
Gb|--2--------2--2-----2--------2--2-----2-----2--2-|
Db|--0--------0--0-----0--------0--0-----0-----0--0-|
Ab|--0--------0--0-----0--------0--0-----0-----0--0-|
Eb|--0--------0--0-----0--------0--0-----0-----0--0-|

   GTR I,II
eb|-------------------------------------------------|
Bb|-------------------------------------------------|
Gb|--2--------2--2-----2--------2--2-----2-----2--2-|
Db|--2--------2--2-----2--------2--2-----2-----2--2-|
Ab|--0--------0--0-----0--------0--0-----0-----0--0-|
Eb|-------------------------------------------------|
  |
  |GTR III
eb|--0--------0--0-----0--------0--0-----0-----0--0-|
Bb|--0--------0--0-----0--------0--0-----0-----0--0-|
Gb|--2--------2--2-----2--------2--2-----2-----2--2-|
Db|--2--------2--2-----2--------2--2-----2-----2--2-|
Ab|--0--------0--0-----0--------0--0-----0-----0--0-|
Eb|-------------------------------------------------|

   GTR I,II
eb|-------------------------------------------------|
Bb|-------------------------------------------------|
Gb|-------------------------------------------------|
Db|--2--------2--2-----2--------2--2-----2-----2--2-|
Ab|--2--------2--2-----2--------2--2-----2-----2--2-|
Eb|--0--------0--0-----0--------0--0-----0-----0--0-|
  |
  |GTR III
eb|--0--------0--0-----0--------0--0-----0-----0--0-|
Bb|--0--------0--0-----0--------0--0-----0-----0--0-|
Gb|--0--------0--0-----0--------0--0-----0-----0--0-|
Db|--2--------2--2-----2--------2--2-----2-----2--2-|
Ab|--2--------2--2-----2--------2--2-----2-----2--2-|
Eb|--0--------0--0-----0--------0--0-----0-----0--0-|

   GTR I,II
eb|-------------------------------------------------|
Bb|-------------------------------------------------|
Gb|--4--------4--4-----4--------4--4-----4-----4--4-|
Db|--4--------4--4-----4--------4--4-----4-----4--4-|
Ab|--2--------2--2-----2--------2--2-----2-----2--2-|
Eb|-------------------------------------------------|
  |
  |GTR III
eb|--0--------0--0-----0--------0--0-----0-----0--0-|
Bb|--0--------0--0-----0--------0--0-----0-----0--0-|
Gb|--4--------4--4-----4--------4--4-----4-----4--4-|
Db|--4--------4--4-----4--------4--4-----4-----4--4-|
Ab|--2--------2--2-----2--------2--2-----2-----2--2-|
Eb|-------------------------------------------------|

   GTR I,II
eb|-------------------------------------------------|
Bb|--3-----3-----3-----3-----3-----3-----3-----3----|
Gb|--2-----2-----2-----2-----2-----2-----2-----2----|
Db|--0-----0-----0-----0-----0-----0-----0-----0----|
Ab|--0-----0-----0-----0-----0-----0-----0-----0----|
Eb|-------------------------------------------------|
  |
  |GTR III
eb|-------------------------------------------------|
Bb|--3--------3--3-----3--------3--3-----3-----3--3-|
Gb|--2--------2--2-----2--------2--2-----2-----2--2-|
Db|--0--------0--0-----0--------0--0-----0-----0--0-|
Ab|--0--------0--0-----0--------0--0-----0-----0--0-|
Eb|--0--------0--0-----0--------0--0-----0-----0--0-|

   GTR I,II
eb|-------------------------------------------------|
Bb|-------------------------------------------------|
Gb|--2-----2-----2-----2-----2----------------------|
Db|--2-----2-----2-----2-----2----------------------|
Ab|--0-----0-----0-----0-----0----------------------|
Eb|-------------------------------------------------|
  |
  |GTR III
eb|--0--------0--0--0--0-----0----------------------|
Bb|--0--------0--0--0--0-----0----------------------|
Gb|--2--------2--2--2--2-----2----------------------|
Db|--2--------2--2--2--2-----2----------------------|
Ab|--0--------0--0--0--0-----0----------------------|
Eb|-------------------------------------------------|

Post Chorus

   GTR I,II
eb|-------------------------------------------------|
Bb|-------------------------------------------------|
Gb|--9--------9-------------------------------------|
Db|--9--------9-------------------------14----------|
Ab|--7--------7-----x-11----12----11-------12~------|
Eb|-----------------x-12----12----12----------------|

Verse
Pre Chorus

Chorus 2

   GTR I,II
eb|-------------------------------------------------|
Bb|-------------------------------------------------|
Gb|-------------------------------------------------|
Db|--2--------2--2-----2--------2--2-----2-----2--2-|
Ab|--2--------2--2-----2--------2--2-----2-----2--2-|
Eb|--0--------0--0-----0--------0--0-----0-----0--0-|
  |
  |GTR III
eb|--0--------0--0-----0--------0--0-----0-----0--0-|
Bb|--0--------0--0-----0--------0--0-----0-----0--0-|
Gb|--0--------0--0-----0--------0--0-----0-----0--0-|
Db|--2--------2--2-----2--------2--2-----2-----2--2-|
Ab|--2--------2--2-----2--------2--2-----2-----2--2-|
Eb|--0--------0--0-----0--------0--0-----0-----0--0-|

   GTR I,II
eb|-------------------------------------------------|
Bb|-------------------------------------------------|
Gb|--4--------4--4-----4--------4--4-----4-----4--4-|
Db|--4--------4--4-----4--------4--4-----4-----4--4-|
Ab|--2--------2--2-----2--------2--2-----2-----2--2-|
Eb|-------------------------------------------------|
  |
  |GTR III
eb|--0--------0--0-----0--------0--0-----0-----0--0-|
Bb|--0--------0--0-----0--------0--0-----0-----0--0-|
Gb|--4--------4--4-----4--------4--4-----4-----4--4-|
Db|--4--------4--4-----4--------4--4-----4-----4--4-|
Ab|--2--------2--2-----2--------2--2-----2-----2--2-|
Eb|-------------------------------------------------|

   GTR I,II
eb|-------------------------------------------------|
Bb|--3--------3--3-----3--------3--3-----3-----3--3-|
Gb|--2--------2--2-----2--------2--2-----2-----2--2-|
Db|--0--------0--0-----0--------0--0-----0-----0--0-|
Ab|--0--------0--0-----0--------0--0-----0-----0--0-|
Eb|-------------------------------------------------|
  |
  |GTR III
eb|-------------------------------------------------|
Bb|--3--------3--3-----3--------3--3-----3-----3--3-|
Gb|--2--------2--2-----2--------2--2-----2-----2--2-|
Db|--0--------0--0-----0--------0--0-----0-----0--0-|
Ab|--0--------0--0-----0--------0--0-----0-----0--0-|
Eb|--0--------0--0-----0--------0--0-----0-----0--0-|

   GTR I,II
eb|-------------------------------------------------|
Bb|-------------------------------------------------|
Gb|--2--------2--2-----2--------2--2-----2-----2--2-|
Db|--2--------2--2-----2--------2--2-----2-----2--2-|
Ab|--0--------0--0-----0--------0--0-----0-----0--0-|
Eb|-------------------------------------------------|
  |
  |GTR III
eb|--0--------0--0-----0--------0--0-----0-----0--0-|
Bb|--0--------0--0-----0--------0--0-----0-----0--0-|
Gb|--2--------2--2-----2--------2--2-----2-----2--2-|
Db|--2--------2--2-----2--------2--2-----2-----2--2-|
Ab|--0--------0--0-----0--------0--0-----0-----0--0-|
Eb|-------------------------------------------------|

   GTR I,II
eb|-------------------------------------------------|
Bb|-------------------------------------------------|
Gb|-------------------------------------------------|
Db|--2--------2--2-----2--------2--2-----2-----2--2-|
Ab|--2--------2--2-----2--------2--2-----2-----2--2-|
Eb|--0--------0--0-----0--------0--0-----0-----0--0-|
  |
  |GTR III
eb|--0--------0--0-----0--------0--0-----0-----0--0-|
Bb|--0--------0--0-----0--------0--0-----0-----0--0-|
Gb|--0--------0--0-----0--------0--0-----0-----0--0-|
Db|--2--------2--2-----2--------2--2-----2-----2--2-|
Ab|--2--------2--2-----2--------2--2-----2-----2--2-|
Eb|--0--------0--0-----0--------0--0-----0-----0--0-|

   GTR I,II
eb|-------------------------------------------------|
Bb|-------------------------------------------------|
Gb|--4--------4--4-----4--------4--4-----4-----4--4-|
Db|--4--------4--4-----4--------4--4-----4-----4--4-|
Ab|--2--------2--2-----2--------2--2-----2-----2--2-|
Eb|-------------------------------------------------|
  |
  |GTR III
eb|--0--------0--0-----0--------0--0-----0-----0--0-|
Bb|--0--------0--0-----0--------0--0-----0-----0--0-|
Gb|--4--------4--4-----4--------4--4-----4-----4--4-|
Db|--4--------4--4-----4--------4--4-----4-----4--4-|
Ab|--2--------2--2-----2--------2--2-----2-----2--2-|
Eb|-------------------------------------------------|

   GTR I,II
eb|-------------------------------------------------|
Bb|--3-----3-----3-----3-----3-----3-----3-----3----|
Gb|--2-----2-----2-----2-----2-----2-----2-----2----|
Db|--0-----0-----0-----0-----0-----0-----0-----0----|
Ab|--0-----0-----0-----0-----0-----0-----0-----0----|
Eb|-------------------------------------------------|
  |
  |GTR III
eb|-------------------------------------------------|
Bb|--3--------3--3-----3--------3--3-----3-----3--3-|
Gb|--2--------2--2-----2--------2--2-----2-----2--2-|
Db|--0--------0--0-----0--------0--0-----0-----0--0-|
Ab|--0--------0--0-----0--------0--0-----0-----0--0-|
Eb|--0--------0--0-----0--------0--0-----0-----0--0-|

   GTR I,II
eb|-------------------------------------------------|
Bb|-------------------------------------------------|
Gb|--2-----2-----2-----2-----2-----2-----2-----2----|
Db|--2-----2-----2-----2-----2-----2-----2-----2----|
Ab|--0-----0-----0-----0-----0-----0-----0-----0----|
Eb|-------------------------------------------------|
  |
  |GTR III
eb|--0--------0--0-----0--------0--0-----0-----0--0-|
Bb|--0--------0--0-----0--------0--0-----0-----0--0-|
Gb|--2--------2--2-----2--------2--2-----2-----2--2-|
Db|--2--------2--2-----2--------2--2-----2-----2--2-|
Ab|--0--------0--0-----0--------0--0-----0-----0--0-|
Eb|-------------------------------------------------|

Pre Solo

   GTR I,II
eb|-------------------------------------------------|
Bb|-------------------------------------------------|
Gb|--6-----6-----6-----6-----6-----6-----6----(6)-6-|
Db|--6-----6-----6-----6-----6-----6-----6----(6)-6-|
Ab|--4-----4-----4-----4-----4-----4-----4----(4)-4-|
Eb|-------------------------------------------------|
  |
  |GTR III
eb|--0--0--0--0--0--0--0--------0--0-----0--0--0--0-|
Bb|--x--x--x--x--x--x--x--------x--x-----x--x--x--x-|
Gb|--6--6--6--6--6--6--6--------6--6-----6--6--6--6-|
Db|--6--6--6--6--6--6--6--------6--6-----6--6--6--6-|
Ab|--4--4--4--4--4--4--4--------4--4-----4--4--4--4-|
Eb|-------------------------------------------------|

   GTR I,II
eb|-------------------------------------------------|
Bb|-------------------------------------------------|
Gb|--4-----4-----4-----4-----4-----4-----4-----4----|
Db|--4-----4-----4-----4-----4-----4-----4-----4----|
Ab|--2-----2-----2-----2-----2-----2-----2-----2----|
Eb|-------------------------------------------------|
  |
  |GTR III
eb|--0--0--0--0--0--0--0--------0--0-----0--0--0--0-|
Bb|--x--x--x--x--x--x--x--------x--x-----x--x--x--x-|
Gb|--4--4--4--4--4--4--4--------4--4-----4--4--4--4-|
Db|--4--4--4--4--4--4--4--------4--4-----4--4--4--4-|
Ab|--2--2--2--2--2--2--2--------2--2-----2--2--2--2-|
Eb|-------------------------------------------------|

   GTR I,II
eb|-------------------------------------------------|
Bb|-------------------------------------------------|
Gb|--2-----2-----2-----2-----2-----2-----2-----2----|
Db|--2-----2-----2-----2-----2-----2-----2-----2----|
Ab|--0-----0-----0-----0-----0-----0-----0-----0----|
Eb|-------------------------------------------------|
  |
  |GTR III
eb|--0-----0-----0-----0--0--0-----0-----0-----0--0-|
Bb|--0-----0-----0-----0--0--0-----0-----0-----0--0-|
Gb|--2-----2-----2-----2--2--2-----2-----2-----2--2-|
Db|--2-----2-----2-----2--2--2-----2-----2-----2--2-|
Ab|--0-----0-----0-----0--0--0-----0-----0-----0--0-|
Eb|-------------------------------------------------|

   GTR I,II
eb|-------------------------------------------------|
Bb|-------------------------------------------------|
Gb|--2-----2-----2-----2-----2-----2-----2-----2----|
Db|--2-----2-----2-----2-----2-----2-----2-----2----|
Ab|--0-----0-----0-----0-----0-----0-----0-----0----|
Eb|-------------------------------------------------|
  |
  |GTR III
eb|--0-----0-----0-----0--0--0-----0--0--0--0--0--0-|
Bb|--0-----0-----0-----0--0--0-----0--0--0--0--0--0-|
Gb|--2-----2-----2-----2--2--2-----2--2--2--2--2--2-|
Db|--2-----2-----2-----2--2--2-----2--2--2--2--2--2-|
Ab|--0-----0-----0-----0--0--0-----0--0--0--0--0--0-|
Eb|-------------------------------------------------|

Guitar Solo

**GTR's II,III play Chorus 2**

   GTR I
eb|-------------------------------------------------|
Bb|-------------------------------------------------|
Gb|-13~------13-11p-9-11~----------------------9----|
Db|--------------------------------------9h11----11-|
Ab|-------------------------------------------------|
Eb|-------------------------------------------------|

   GTR I
eb|-------------------------------------------------|
Bb|-------------------------------------------------|
Gb|-13~------13-11p-9-11~----------------------9----|
Db|--------------------------------------9h11----11-|
Ab|-------------------------------------------------|
Eb|-------------------------------------------------|

   GTR I
eb|-------------------------------------------------|
Bb|-------------------------------------------------|
Gb|-11~------11-11b-r--9~----------------------9----|
Db|-----------------------------------x--9h11----11-|
Ab|-------------------------------------------------|
Eb|-------------------------------------------------|

   GTR I
eb|-------------------------------------------------|
Bb|-------------------------------------------------|
Gb|-14----14----13-----------9-----------------9----|
Db|--------------------0-----------9--9--9h11----11-|
Ab|-------------------------------------------------|
Eb|-------------------------------------------------|
                                   .  .            

   GTR I
eb|-------------------------------------------------|
Bb|-12~------12-------------------------------------|
Gb|-------------11bp9h11~----------------------9----|
Db|--------------------------------9--9--9h11----11-|
Ab|-------------------------------------------------|
Eb|-------------------------------------------------|
                                   .  .            

   GTR I
eb|-------------------------------------------------|
Bb|/12~------12-------------------------------------|
Gb|-------------11bp9h11~----------------------9----|
Db|--------------------------------9--9--9h11----11-|
Ab|-------------------------------------------------|
Eb|-------------------------------------------------|
                                   .  .            

   GTR I
eb|-------------------------------------------------|
Bb|-------------------------------------------------|
Gb|-11~------11-11b-r--9~----------------------9----|
Db|--------------------------------9--9--9h11----11-|
Ab|-------------------------------------------------|
Eb|-------------------------------------------------|
                                   .  .            

   GTR I
eb|-------------------------------12----------12----|
Bb|-------------12----12----12----------14----------|
Gb|-14----14----------------------------------------|
Db|-------------------------------------------------|
Ab|-------------------------------------------------|
Eb|-------------------------------------------------|

Post Solo

**GTR's II,III play Pre Solo**

   GTR I
eb|-15b---------------15b~--------------15b----r----|
Bb|-------------------------------------------------|
Gb|-------------------------------------------------|
Db|-------------------------------------------------|
Ab|-------------------------------------------------|
Eb|-------------------------------------------------|

   GTR I
eb|-14----------------14----------------14b----r----|
Bb|-------------------------------------------------|
Gb|-------------------------------------------------|
Db|-------------------------------------------------|
Ab|-------------------------------------------------|
Eb|-------------------------------------------------|

   GTR I
eb|-12~---------------------------------------------|
Bb|-------------------------------------------------|
Gb|-------------------------------------------------|
Db|-------------------------------------------------|
Ab|-------------------------------------------------|
Eb|-------------------------------------------------|

   GTR I
eb|-------------------------------------------------|
Bb|-------------------------------------------------|
Gb|-------------------------------------------------|
Db|-------------------------------------------------|
Ab|-------------------------------------------------|
Eb|-------------------------------------------------|

Chorus 2 - 2x

Outro

   GTR I,II
eb|-------------------------------------------------|
Bb|-------------------------------------------------|
Gb|-------------------------------------------------|
Db|--2----------------------------------------------|
Ab|--2----------------------------------------------|
Eb|--0----------------------------------------------|
  |
  |GTR III
eb|--0----------------------------------------------|
Bb|--0----------------------------------------------|
Gb|--0----------------------------------------------|
Db|--2----------------------------------------------|
Ab|--2----------------------------------------------|
Eb|--0----------------------------------------------|


| b  bend
| r  release bend
|trp triplet
|PH. pinch harmonic
|fbk feedback
| .  palm-mute
| /  slide up
| \  slide down
| h  hammer-on
| p  pull-off
| ~  vibrato
|(7) harmonic
| x  Mute note
===============================================================================

comments
We did not receive enough feedback on this tab! Please rate:
print report bad tab
1 2 3 4 5
I want to post or [tab]
guest
You may want to rate the tab now too:
select rating
Please do not post tabs as comments. Select "correction" instead!